PrimaNota.ru - самый крупный в мире бесплатный архив песенных текстов, аккордов, табулатур и нот


Nelly - Number One - текст песни, таба, видео

Регистрация Запомнить меня
Войти через:  Facebook Google Twitter Vk Yandex Mail.ru

Nelly - Number One - текст песни, таба, видео

Печатать
Просмотров: 192
Nelly 
Training Day Soundtrack
"Number 1" 
Transcribed: Phil Hyde (DuaneXC@yahoo.com)
'My Own Work'

Intro: 

Riff 1: 3X          

 --------0------- 
 -----------1---- 
 -----2--------2- 
 ---2------------  
 -0-------------- 
E---------------- 

Riff 2:

-----------
---1--1--1-
--2--2--2--
-2--2--2---
-----------
-----------

Verse/Chorus:

----------0------------------- (Repeated)
-------------1--------1--1--1-
-------2--------2----2--2--2--
----2---------------2--2--2----
-0----------------------------
------------------------------

Bridge:

(1:36-1:57)

----------0--------------------
-------------1-------1--1-------
-------2--------2---2--2--------
----2--------------0--0---------
-0-----------------------------
-------------------------------

This song is played with the Am chord.  If anyone has
any additions or corrections please email me.

Hook em' Horns
     
Добавлено: 14.07.2013
Другие материалы по этой песне:
  • Аккорды и текст

Страница создана 21.06.2012
http://primanota.ru/nelly/number-one-chords.htm
Привет, Гость.
Предлагаем пройти революционный курс по гитаре.
Подарок от PrimaNota.Ru, забирай!