PrimaNota.ru - самый крупный в мире бесплатный архив песенных текстов, аккордов, табулатур и нот


Nelly Furtado - On the radio - аккорды и текст, перевод, видео

Регистрация Запомнить меня
Войти через:  Facebook Google Twitter Vk Yandex Mail.ru

Nelly Furtado - On the radio - аккорды и текст, перевод, видео

Печатать
Просмотров: 257
Уроки эстрадного вокала в Санкт-Петербурге
On the radio
Nelly Furtado
Author/Artist: Nelly Furtado
Album: Whoa, Nelly!
Title: ...On the Radio
Transcribed by: Ramsey
Email: rnukho@si.rr.com

Standard tuning and capo on the 3rd fret. In the parentheses
I included the basic chord shapes in respect to the capo,
3rd fret = open strings. Outside the parentheses are the chords
without the capo. Very cool song, let me know if you got questions!


INTRO / VERSE

 Cm(Am)    Gm(Em)   F(D)          Gm(Em)
|-------3-----------------5-h-6-5----------|
|-----4----------3------6----------------3-|
|---5----------3------5----------------3---|
|-5----------5------3----------------5-----|
|----------5-----------------------5-------|
|------------------------------------------|



 Cm(Am)    Gm(Em)   F(D)           F(D)
|-------3-----------------5-h-6-5--------5-h-6-5-|
|-----4----------3------6--------------6---------|
|---5----------3------5--------------5-----------|
|-5----------5------3--------------3-------------|
|----------5-------------------------------------|
|------------------------------------------------|


CHORUS

Cm(Am) | Gm(Em) | Bb(G) | Bb(G)


BRIDGE

Eb(C) | Bb(G) | Eb(C) | Bb(G)
Eb(C) | Gm(Em) | Cm(Am) | Eb(C) | F(D) | F(D)


CHORUS
     
Добавлено: 09.08.2013
Другие материалы по этой песне:
  • Аккорды и текст

Страница создана 31.07.2012
http://primanota.ru/nelly-furtado/on-the-radio-chords.htm
Привет, Гость.
Предлагаем пройти революционный курс по гитаре.
Подарок от PrimaNota.Ru, забирай!