PrimaNota.ru - самый крупный в мире бесплатный архив песенных текстов, аккордов, табулатур и нот


Neils Children - Always The Same - таба, видео

Регистрация Запомнить меня
Войти через:  Facebook Google Twitter Vk Yandex Mail.ru

Neils Children - Always The Same - таба, видео

Печатать
Просмотров: 83
ALWAYS THE SAME


INTRO
A# strum

then:
|------7h6-----7h6-----7h6-----3-------------------------|
|------7h6-----7h6-----7h6-----3-------------------------|
|------7h6-----7h6-----7h6-----3-------------------------|
|--------------------------------------------------------|
|--------------------------------------------------------|
|--6-6-----6-6-----6-6-----6-6---------------------------|

|------7h6-----7h6-----7h6-----7-------------------------|
|------7h6-----7h6-----7h6-----7-------------------------|
|------7h6-----7h6-----7h6-----7-------------------------|
|--------------------------------------------------------|
|--------------------------------------------------------|
|--6-6-----6-6-----6-6-----6-6---------------------------|

It's not enough anymore
Not enough to keep me rocking at your door.

CHORUS:
C#                          C    C
It's getting closer i can't feel it
C#                          E    E
It's getting closer i can't hear itC#                          C    C
It's getting closer i can't feel it
C#                          E    E
It's getting closer i can't hear it


VERSE:
I know we're both supposed to be (?)
You wonder what is the point anymore
Is it as easy as we once thought?
I don't think so.

CHORUS:
It's getting closer i can't feel it
It's getting closer i can't hear it
It's getting closer i can't feel it
It's getting closer i can't hear it.

SOLO

|---------------6-7-6-------------------------------------|
|-------6-7-6-7-------7-6---------------------------------|
|---6-7-------------------7-6-7-6-------------------------|
|---------------------------------------------------------|
|---------------------------------------------------------|
|-6-------------------------------------------------------|

|--------------------------------|
|-------66-------------66----77--|
|-66-77----77-66-66-77----77-----|
|--------------------------------|
|--------------------------------|
|--------------------------------|

A#
(?)
But i'm not happy with what we've got
Is it as easy as we once thought?
I think not.

CHORUS
It's getting closer i can't feel it
It's getting closer i can't hear it
It's getting closer i can't feel it
It's getting closer i can't hear it
It's getting closer i can't feel it
It's getting closer i can't hear it
It's getting closer i can't feel it
It's getting closer i can't hear it anymore. 
Добавлено: 11.09.2013
Другие материалы по этой песне:
  • Аккорды и текст

Страница создана 11.09.2013
http://primanota.ru/neils-children/always-the-same-chords.htm
Привет, Гость.
Предлагаем пройти революционный курс по гитаре.
Подарок от PrimaNota.Ru, забирай!