PrimaNota.ru - самый крупный в мире бесплатный архив песенных текстов, аккордов, табулатур и нот


Neil Zaza - This Time - таба, видео

Регистрация Запомнить меня
Войти через:  Facebook Google Twitter Vk Yandex Mail.ru

Neil Zaza - This Time - таба, видео

Печатать
Просмотров: 91
Уроки эстрадного вокала в Санкт-Петербурге
-------------------------------------------------------------------------------
                            This Time - Neil Zaza
-------------------------------------------------------------------------------
Tabbed by: Jim Backston
 
 
e|---0--0---0------------------0---0--------0---0----------------------------|
B|---0----0---0---0--0--0------0------0-----0------4--4----------------------|
G|---9------------8--9--8------2---------2--2------4--4----------------------|
D|---9------------9--9--9--9\--2------------2------4--4----------------------|
A|---7-------------------------0------------0------2--2----------------------|
E|---0-----------------------------------------------------------------------|

e|---0--0---0------------------0---0--------0---0----------------------------|
B|---0----0---0---0--0--0------0------0-----0------4--4----------------------|
G|---9------------8--9--8------2---------2--2------4--4----------------------|
D|---9------------9--9--9--9\--2------------2------4--4----------------------|
A|---7-------------------------0------------0------2--2----------------------|
E|---0-----------------------------------------------------------------------|


 
e|---0--0----0---------------------------------------------------------------|
B|---0-----0----0--0--0--0------------10----10---10----12--12----------------|
G|---9-------------8--9--8---------9-----9-----9-------11--11----------------|
D|---9-------------9--9--9---6--7----------------------9---9-----------------|
A|---7-----------------------------------------------------------------------|
E|---0-----------------------------------------------------------------------|
 
e|---0--0---0--------------------11--12--11--12--11---14--14-----------------|
B|---0----0---0--0-0-0--------------------------------12--12-----------------|
G|---9-----------8-9-8-----/9-------------------------11--11-----------------|
D|---9-----------9-9-9--9----------------------------------------------------|
A|---7-----------------------------------------------------------------------|
E|---0-----------------------------------------------------------------------|
 
e|-------------------------------------------17-----17------17--14--14-------|
B|---17--17--17--17--16--17--16----------17-----17------17------12--12-------|
G|---16--16--16--16-------------16---14-------------------------11--11-------|
D|---------------------------------------------------------------------------|
A|---------------------------------------------------------------------------|
E|---------------------------------------------------------------------------|
 
e|-------------------------------------4-4-4-5-4-----------------------------|
B|---17----17-17-17--16-17-16------16--5-5-5-5-5--7-5--/7--------------------|
G|---16----16-16-16------------16--16-------------4-4------------------------|
D|---------------------------------------------------------------------------|
A|---------------------------------------------------------------------------|
E|---------------------------------------------------------------------------|
 
e|--------------------------------0-0-0--------------------------------------|
B|--------------------------7-----4-5-7-------------7br~~--5-5--7------------|
G|--------8-9----8-9----/6-----6---------------8-9---------------------------|
D|--4-/6-------7--------------------------4-/6-------------------------------|
A|---------------------------------------------------------------------------|
E|---------------------------------------------------------------------------|
 
 
      x   x  x  x x x x 
e|---------------------------------------------------------------------------|
B|-----------------------12--12--12-----5p4---------9-9h10-7----5p4----------|
G|--------6-----6-8---9--11--11--11------------------------------------------|
D|----/7-----7------7----9---9---9------------6-7--------------------6-7-----|
A|---------------------------------------------------------------------------|
E|---------------------------------------------------------------------------|
 
e|---------------------------------------------------------------------------|
B|------------------9-10-12-12-10-----------------4-5---4-5---4-5-7b-5-7-----|
G|---11b-11p9----------------------11br-9--11---6-----4-----2----------------|
D|------------9--------------------------------------------------------------|
A|---------------------------------------------------------------------------|
E|---------------------------------------------------------------------------|
 

e|-------------------0-0-0-0-0--------------------9--------------------------|
B|---9-10-10/14-12--/5-5-5-4-5--4---------5~----9---9------------------------|
G|---------------------------------4-4\2-----11b------11br-9----9------------|
D|-----------------------------------------------------------11---11--9------|
A|-----------------------------------------------------------------------11--|
E|---------------------------------------------------------------------------|

    +   x   x
e|-------------------0---0---0-------17b-17-16-14-16-16b-----16-14--12--14---|
B|-------------------17--17--17--16------------------------------------------|
G|-------------------16--16--16----------------------------------------------|
D|---------------------------------------------------------------------------|
A|--9br--7----7~-------------------------------------------------------------|
E|----------9----------------------------------------------------------------|


e|--14b-14b-16-14bp12-14~~---------------19----------------------------------|
B|---------------------------------16-17-------------19b-19h21p19\17---------|
G|---------------------------------------------------------------------------|
D|--------------------------16h18-------------18-19--------------------------|
A|---------------------------------------------------------------------------|
E|---------------------------------------------------------------------------|


e|---/16-19-19b-19b--17------------------------------------------------------|
B|----------------------19br-19p17-17h19~----/14-16-16/17--16-17/19-17-19----|
G|---------------------------------------------------------------------------|
D|---------------------------------------------------------------------------|
A|---------------------------------------------------------------------------|
E|---------------------------------------------------------------------------|

               + 
e|---------17------12p9--------9-11-12/14-12-11\9-------------9-11-12-11-9---|
B|-19b-19b----19br-----9-11-12--------------------12--9-11-12----------------|
G|---------------------------------------------------------------------------|
D|---------------------------------------------------------------------------|
A|---------------------------------------------------------------------------|
E|---------------------------------------------------------------------------|
                                                          +
e|---------------------------------------------------------------------------|
B|--12-11-9------------------------------------------------------------------|
G|-----------11p9p8-9-8-9-11-9-8---------------------------------------------|
D|-------------------------------11-9-7--7-9-11-9-7----7---------------------|
A|--------------------------------------------------11----9br--7-----7-------|
E|----------------------------------------------------------------9----------|
 

e|---------/7-------------------------------------------------16-17-19-19-17-|
B|----5p4---------9-9h10-7----17p16-------------19b-19-17--------------------|
G|--------------------------------------------------------16-----------------|
D|-------------7-----------------------18-19---------------------------------|
A|---------------------------------------------------------------------------|
E|---------------------------------------------------------------------------|

e|---------------------------------------------------------------------------|
B|--19br-17-19------16-17----16-17----16-17-19b-17-19----16-17----16-17------|
G|---------------18-------16-------14------------------18------16------------|
D|---------------------------------------------------------------------------|
A|---------------------------------------------------------------------------|
E|---------------------------------------------------------------------------|

e|--19b-19b-19~--16-17-19-17-17p16-17-19-17~---------------------------------|
B|-------------------------------------------19-17-19bp17-19-----------------|
G|---------------------------------------------------------------------------|
D|---------------------------------------------------------------------------|
A|---------------------------------------------------------------------------|
E|---------------------------------------------------------------------------|

e|---------19--------17-------------14-------12------11-----9-----7-------7-9|
B|---16/17----17\16-----16\14-14\12----12\10----10\9----9\7---7\5---5\4-5----|
G|---------------------------------------------------------------------------|
D|---------------------------------------------------------------------------|
A|---------------------------------------------------------------------------|
E|---------------------------------------------------------------------------|

                                               (2 full steps bend)
e|--11b-11p9h11p9-----------14-16-17-19-21-21b-21b---------------------------|
B|--------------------12~----------------------------------------------------|
G|-----------------9---------------------------------------------------------|
D|---------------------------------------------------------------------------|
A|---------------------------------------------------------------------------|
E|---------------------------------------------------------------------------|

e|----21-22-22b~-------------------------------------------------10\12-10-10-|
B|-----------------8-10-12-10-8h10p8\7--10--8--7-5-5\4-7----8-10-------------|
G|---------------------------------------------------------------------------|
D|---------------------------------------------------------------------------|
A|---------------------------------------------------------------------------|
E|---------------------------------------------------------------------------|

e|---15-17-19-19b-19-17-15-14-15-17b-----21b-22b-19-21b-19\------------------|
B|---------------------------------------------------------------------------|
G|---------------------------------------------------------------------------|
D|---------------------------------------------------------------------------|
A|---------------------------------------------------------------------------|
E|---------------------------------------------------------------------------|
     m  m  m
e|---------16-19-16-19b-19br-17------------19-17-----------------------------|
B|------16---------------------19br-17-19b-------19br-17-19-----17-19~-------|
G|--/16------------------------------------------------------18--------------|
D|---------------------------------------------------------------------------|
A|---------------------------------------------------------------------------|
E|---------------------------------------------------------------------------|
                                                +
e|-------------9-------------------------------------------------------------|
B|-------------9-------------------------------------------------------------|
G|-------9-11b---11br-9-11----9----------------------------------------------|
D|--9-11-------------------11----11-9----------------------------------------|
A|------------------------------------11-10-9-7-9br-7--7h9~------------------|
E|---------------------------------------------------9-----------------------|

e|---------------------------21-----19---------------------------------------|
B|------12------16-------14-----21----------21------17\----------------------|
G|---/9----9/13----13\11---------------21------------------------------------|
D|-----------------------------------------------18--------------------------|
A|---------------------------------------------------------------------------|
E|---------------------------------------------------------------------------|

e|---------------------------------------------------------------------------|
B|------9-----12------14-------16------17---16-17-19/21-21b------------------|
G|---/6---6/9----9/11----11/13---13/14---------------------------------------|
D|---------------------------------------------------------------------------|
A|---------------------------------------------------------------------------|
E|---------------------------------------------------------------------------|

e|---------------------------------------------------11-11b------------------|
B|--19h21p19\17-19-21---16-17-19-17-16\14-16-14\-/12---------12-10-----------|
G|---------------------------------------------------------------------------|
D|---------------------------------------------------------------------------|
A|---------------------------------------------------------------------------|
E|---------------------------------------------------------------------------|

e|--10/14--------16-17/19----------7p4-------4--7/12p7-------12-7------------|
B|--------14-14-----------17--17-------5---5-----------9---9-----------------|
G|---------------------------------------4---------------9-------------------|
D|---------------------------------------------------------------------------|
A|---------------------------------------------------------------------------|
E|---------------------------------------------------------------------------|

e|---16p12----------12h16p12/19p16-----------16-19b--------------------------|
B|---------12----12----------------17----17----------------------------------|
G|------------13----------------------16-------------------------------------|
D|---------------------------------------------------------------------------|
A|---------------------------------------------------------------------------|
E|---------------------------------------------------------------------------|

e|---------19-17-----------------------\14-14h16p14\12----12-14/19b~~--------|
B|---------------19b-19-17----17-19--------------------14--------------------|
G|-------------------------18------------------------------------------------|
D|---------------------------------------------------------------------------|
A|---------------------------------------------------------------------------|
E|---------------------------------------------------------------------------|

e|----------------------------------------------17b-17h19p17p16--------------|
B|--14-16-14\13-14-16-16br-14-13---------------------------------------------|
G|-------------------------------14h16p14\13-14------------------------------|
D|---------------------------------------------------------------------------|
A|---------------------------------------------------------------------------|
E|---------------------------------------------------------------------------|

e|----------------------11-12-9--9-11\---------------------------------------|
B|---4-5-7-4-5-7-9br-7------------------4-5-7--4-5-7--4-2-4-5-4-5-5/7--------|
G|---------------------------------------------------------------------------|
D|---------------------------------------------------------------------------|
A|---------------------------------------------------------------------------|
E|---------------------------------------------------------------------------|

e|----------------------------------------------------------16-17-19-19-17---|
B|--5-5h7p5\4----5p4------9-9h10-7-5p4-------19b-19--17----------------------|
G|------------------------------------------------------16-------------------|
D|-------------------6-7----------------6-7----------------------------------|
A|---------------------------------------------------------------------------|
E|---------------------------------------------------------------------------|

e|---------------------------------------------------------------------------|
B|---19br-17-19----16-17----16-17----16-17-19b-17-19-15b-15b-15b\12\9\7------|
G|--------------18-------16-------14-----------------------------------------|
D|---------------------------------------------------------------------------|
A|---------------------------------------------------------------------------|
E|---------------------------------------------------------------------------|
                                             +
e|-----------------16-17-19-14-16b-16\---------------------------------------|
B|-------12-12b-12-----------------------------------------------------------|
G|---8-9---------------------------------------------------------------------|
D|---------------------------------------------------------------------------|
A|-------------------------------------11-11-11~-9h11p9\7-9/11-9-9-----------|
E|---------------------------------------------------------------------------|

e|-11h12---------------11--12---14----12-----9--11--9--12--11---11----12-----|
B|-------12------10-12---10--10----10---10---10-10--10-10--10-----10---------|
G|----------13-9-----------------------------9--9---9--9---9---9-----9-------|
D|---------------------------------------------------------------------------|
A|---------------------------------------------------------------------------|
E|---------------------------------------------------------------------------|

e|--11------12-----------14-14-14--0-0-0-0--0--0-0----------5--5---5-----------|
B|-----10----------------12-12-12--0-0-0-0--0--0-0------------5--5---12-12-----|
G|-9------9--------------11-11-11--9-9-9-9--8--9-8---------2---------11-11-----|
D|---------------------------------9-9-9-9--9--9-9--9----2-----------9--9------|
A|---------------------------------7-7-7-7--7--7-7-----0-----------------------|
E|---------------------------------0-0-0-0--0--0-0-----------------------------|

e|---0--0-0-0-0-0-0------0---------------------------------------------------|
B|---0--0-0-0-0-0-0------0--4---2--------------------------------------------|
G|---9--9-9-9-8-9-8------2--4---2--------------------------------------------|
D|---9--9-9-9-9-9-9-9----2--4---2--------------------------------------------|
A|---7--7-7-7-7-7-7------0--x---x--------------------------------------------|
E|---0--0-0-0-0-0-0---------4---2--------------------------------------------|


 
************************************
 
| /   slide up
| \   slide down
| h   hammer-on
| p   pull-off
| ~   vibrato
| +   harmonic
| x   Mute note
| b   Bend
| pb  Pre-bend
| br  Bend release
| pbr Pre-bend release
| brb Bend release bend
 
************************************
 
Добавлено: 27.11.2015
Другие материалы по этой песне:
  • Аккорды и текст

Страница создана 27.11.2015
http://primanota.ru/neil-zaza/this-time-chords.htm
Привет, Гость.
Предлагаем пройти революционный курс по гитаре.
Подарок от PrimaNota.Ru, забирай!