PrimaNota.ru - самый крупный в мире бесплатный архив песенных текстов, аккордов, табулатур и нот


Neil Zaza - Take On Me - таба, видео

Регистрация Запомнить меня
Войти через:  Facebook Google Twitter Vk Yandex Mail.ru

Neil Zaza - Take On Me - таба, видео

Печатать
Просмотров: 86
-------------------------------------------------------------------------------
                            Take On Me - Neil Zaza (studio version from 212)
-------------------------------------------------------------------------------
Tabbed by: Jim Backston
Twitter: JBackston

    Intro
e|--19--/19-----------------------------------------------------10-----------|
B|--17------20-20~~~\------10-10-----------------------12-12-13--------------|
G|--17---------------------------10--------12-12----12-----------------------|
D|--17------------------------------12-12------------------------------------|
A|---------------------------------------------------------------------------|
E|---------------------------------------------------------------------------|


e|---------------------------------------------------------------------------|
B|--13-13-13---------10-10~----10-------10-----------10-10-------------------|
G|-----------12-10----------------12-12----12--------------10---------12-12--|
D|------------------------------------------------------------12-12----------|
A|---------------------------------------------------------------------------|
E|---------------------------------------------------------------------------|


e|---------------10----------------------------------------------------------|
B|------12-12-13-----13-13-13--------10-10~--10------10------10-10-----------|
G|---12-----------------------12-10------------12-12----12---------10--------|
D|--------------------------------------------------------------------12-12--|
A|---------------------------------------------------------------------------|
E|---------------------------------------------------------------------------|


e|---------------------10----------------------------------------------------|
B|------------12-12-13----13-13-13--------10-10~-10-------10-----------------|
G|--12-12---12---------------------12-10------------12-12----12\-------------|
D|---------------------------------------------------------------------------|
A|---------------------------------------------------------------------------|
E|---------------------------------------------------------------------------|


  Verse 1
e|---------------------------------------------------------------------------|
B|-------------------------------------10-10-10--8h10p8----------------------|
G|-------10--10--9-7-----7-9-10-9-9\5--------------------10~-/10-9-7---------|
D|--------------------10-----------------------------------------------------|
A|---------------------------------------------------------------------------|
E|---------------------------------------------------------------------------|


e|---------------------------------------------------------------------------|
B|---------------------------------------------------------------------------|
G|-----7-9-10-9-7----7-7h9-7------10-10-10--10~------------------------------|
D|--10------------10---------10-----------------10-10-10-10-10-10--10\9------|
A|---------------------------------------------------------------------------|
E|---------------------------------------------------------------------------|


                       Chorus
e|---------------------------------------------------------------------------|
B|---------------------1---8-----10--10---10----10----10-----10------10------|
G|---------------------3b--10b---12b-12nb-12nb--12nb--12nb---12nb----12nb----|
D|---9-9-9\7-7-9-------------------------------------------------------------|
A|---------------------------------------------------------------------------|
E|---------------------------------------------------------------------------|

 
e|---------------------------------------------------------------------------|
B|--10-----10---10-----10-----10-----10------10----10----10------------------|
G|--12nb---12b--12nb---12nb---12nb---12nb----12nb--12nb--12nb----------------|
D|---------------------------------------------------------------------------|
A|---------------------------------------------------------------------------|
E|---------------------------------------------------------------------------|


e|---------------------------------------------------------------------------|
B|---1---8-----10----10-----10----10----10-----10------10-----10-------------|
G|---3b--10b---12b---12nb---12nb--12nb--12nb---12nb----12nb---12nb-----------|
D|---------------------------------------------------------------------------|
A|---------------------------------------------------------------------------|
E|---------------------------------------------------------------------------|


e|------------------------------------------------------------19-17-19-19b---|
B|--10----10----10----10----10----10-----10-----10------13~~-----------------|
G|--12b---12nb--12nb--12nb--12nb--12nb---12nb---12nb-------------------------|
D|---------------------------------------------------------------------------|
A|---------------------------------------------------------------------------|
E|---------------------------------------------------------------------------|

                                Verse 2
e|---17-19----------20\------------------------------------------------------|
B|---------20~~~~---------------18-18-17-15-----15-17-18-17--17\13-----------|
G|-------------------------------------------17------------------------------|
D|---------------------------------------------------------------------------|
A|---------------------------------------------------------------------------|
E|---------------------------------------------------------------------------|


e|--17-17-17-15h17p15------------------------------------------------------------|
B|--------------------18--18-17-15------15-17-18-17-15\13-15-17-15---------------|
G|------------------------------------17---------------------------17------------|
D|-------------------------------------------------------------------------------|
A|-------------------------------------------------------------------------------|
E|-------------------------------------------------------------------------------|


e|---------------------------------------------------------------------------|
B|--18-18-18--18~~-----------------------------------------------------------|
G|---------------------------------------------------------------------------|
D|-----------------10-10-10-10-10-10-10\9-9-9-9\7--7-9-----------------------|
A|---------------------------------------------------------------------------|
E|---------------------------------------------------------------------------|

     Chorus 2
e|---8------15--------17-17-----17-17-----17-17----17-17---------------------|
B|---11b----18b---20b-------20b-------20b-------20-------20~\----------------|
G|---------------------------------------------------------------------------|
D|---------------------------------------------------------------------------|
A|---------------------------------------------------------------------------|
E|---------------------------------------------------------------------------|


e|---8----15--------17-17-----17-17-----17-17-19b-------17h19-17-19-19b------|
B|---11b--18b---20b-------20b-------20b--------------13~---------------------|
G|---------------------------------------------------------------------------|
D|---------------------------------------------------------------------------|
A|---------------------------------------------------------------------------|
E|---------------------------------------------------------------------------|
 

                       Interlude
e|--17-19~------15-----------------------------------------------------------|
B|-----------17-----------13/15--12~---12\6-6~----/12-11-10-9\8/9-10-11-12---|
G|---------------------12----------------------------------------------------|
D|---------------------------------------------------------------------------|
A|---------------------------------------------------------------------------|
E|---------------------------------------------------------------------------|


e|---------------------------------------------------------------------------|
B|--11-10-9\8/9-10-11-12-11-10-9\8/9--10-11-12-11-10-9\8/9--10-11\6~~--------|
G|---------------------------------------------------------------------------|
D|---------------------------------------------------------------------------|
A|---------------------------------------------------------------------------|
E|---------------------------------------------------------------------------|

e|---------------------------------------------------------------------------|
B|---------------------------------------------------------------------------|
G|--7-7-7-9-9-9---11-11-11-12--12--12--14--14--16--7-7-7-9-9-9--11-11-11-----|
D|---------------------------------------------------------------------------|
A|--5-5-5-7-7-7---9--9--9--10--10--10--12--12--14--5-5-5-7-7-7--9--9--9------|
E|---------------------------------------------------------------------------|


e|---------------------------------------------------------------------------|
B|---------------------------------------------------------------------------|
G|-12-12-12--14-14-16-7-7-7-9-9-9-11-11-11---12--12--12---14--14----16-------|
D|---------------------------------------------------------------------------|
A|-10-10-10--12-12-14-5-5-5-7-7-7-9--9--9----10--10--10---12--12----14-------|
E|---------------------------------------------------------------------------|


e|---------------------------------------------------------------------------|
B|-----------------------------------------------------8p5----5--------------|
G|-------7p4-----4-7p4----4-7p4-----4-7p4-----4------------5-----------------|
D|-------------5--------5---------5---------5--------------------------------|
A|---------------------------------------------------------------------------|
E|---------------------------------------------------------------------------|

e|---------------------------------------------------------------------------|
B|-----8p5------5------8p5---5--8p5---5--------------------------------------|
G|-----------5-------------5--------5------16p12------12--16p12----12--------|
D|------------------------------------------------12------------12-----------|
A|---------------------------------------------------------------------------|
E|---------------------------------------------------------------------------|


e|---------------------------------------------------------------------------|
B|-------------------------------15p12----12---15p12---12---15p12---12-------|
G|---16p12----12---16p12----12---------12------------12----------12----------|
D|---------12------------12--------------------------------------------------|
A|---------------------------------------------------------------------------|
E|---------------------------------------------------------------------------|


e|------------------15p12----12---15p12----12---15p12----12---15p12----12----|
B|---15p12----12----------12------------12------------12------------12-------|
G|---------12----------------------------------------------------------------|
D|---------------------------------------------------------------------------|
A|---------------------------------------------------------------------------|
E|---------------------------------------------------------------------------|


e|---19p15----15---19p15----15---19p15----15---19p15----15----22p19----19----|
B|---------15------------15------------15------------15-------------20-------|
G|---------------------------------------------------------------------------|
D|---------------------------------------------------------------------------|
A|---------------------------------------------------------------------------|
E|---------------------------------------------------------------------------|


e|--22p19----19---22p19----19---22p19----19--22\-----------------------------|
B|--------20------------20------------20-------------------------------------|
G|---------------------------------------------------------------------------|
D|---------------------------------------------------------------------------|
A|------------------------------------------------------7-9-10---7-9-10------|
E|-----------------------------------------------7-8-10----------------------|


e|-----------------------------------------------------8-10-12---------------|
B|-----------------------------------8-10-12---8-10-12-----------------------|
G|-------------------7-9-11----7-9-11----------------------------------------|
D|---7-9-10---7-9-10---------------------------------------------------------|
A|---------------------------------------------------------------------------|
E|---------------------------------------------------------------------------|


e|------------------------------------------------------5-8p7p5--------------|
B|---------------------------------------5-8p7p5--5-7-8---------8------------|
G|-----------------------4-7p5p4---4-5-7--------7----------------------------|
D|--7-5-4---------4-5-7----------7-------------------------------------------|
A|--------7-3-5-7------------------------------------------------------------|
E|---------------------------------------------------------------------------|


e|-------8h12p8----------------10-14-12-10-------------------12-15-14-12-----|
B|--8-12--------12----10-12-13-------------13----10/12-13-15-------------15--|
G|---------------------------------------------------------------------------|
D|---------------------------------------------------------------------------|
A|---------------------------------------------------------------------------|
E|---------------------------------------------------------------------------|

                                                  Keyboard interlude
e|---------------14-17-15------------14-22\----------------------------------|
B|---12/13-15-17----------17-------15----------------------------------------|
G|-------------------------------16------------------------------------------|
D|-----------------------------17--------------------------------------------|
A|---------------------------------------------------------------------------|
E|---------------------------------------------------------------------------|


e|-------------------------------------------------------10------------------|
B|--------------------10-10---------------------12-12-13----13-13-13---------|
G|--------------------------10-------12-12---12----------------------12-10---|
D|-----------------------------12-12-----------------------------------------|
A|---------------------------------------------------------------------------|
E|---------------------------------------------------------------------------|


e|----------------------------------------------------------------10---------|
B|--10-10---10-------10----------10-10-------------------12-12-13----13-13-13|
G|-------------12-12----12-------------10------12-12--12---------------------|
D|----------------------------------------12-12------------------------------|
A|---------------------------------------------------------------------------|
E|---------------------------------------------------------------------------|


e|---------------------------------------------------------------------10----|
B|---------10-10--10-------10--------10-10--------------------12-12-13-------|
G|--12-10------------12-12----12-----------10-------12-12--12----------------|
D|--------------------------------------------12-12--------------------------|
A|---------------------------------------------------------------------------|
E|---------------------------------------------------------------------------|

                                          Chorus
e|---------------------------------------------------------------------------|
B|--13-13-13-------10-10---10-------10-----1----8----10---10----10----10-----|
G|-----------12-10------------12-12----12--3b---10b--12b--12nb--12nb--12nb---|
D|---------------------------------------------------------------------------|
A|---------------------------------------------------------------------------|
E|---------------------------------------------------------------------------|


e|---------------------------------------------------------------------------|
B|-10-----10-----10----10------10---10---10---10---10---10---10---10---------|
G|-12nb---12nb---12nb--12nb----12b--12nb-12nb-12nb-12nb-12nb-12nb-12nb-------|
D|---------------------------------------------------------------------------|
A|---------------------------------------------------------------------------|
E|---------------------------------------------------------------------------|


e|---------------------------------------------------------------------------|
B|--1--8---10--10---10---10---10---10---10---10---10--10---10---10---10------|
G|--3b-10b-12b-12nb-12nb-12nb-12nb-12nb-12nb-12nb-12b-12nb-12nb-12nb-12nb----|
D|---------------------------------------------------------------------------|
A|---------------------------------------------------------------------------|
E|---------------------------------------------------------------------------|


e|---------------------17h19-17-19-19b-17-19\---------------17-17----17-17---|
B|--10---10---10----13--------------------------1---15--20b------20b---------|
G|--12nb-12nb-12nb------------------------------3b--18b----------------------|
D|---------------------------------------------------------------------------|
A|---------------------------------------------------------------------------|
E|---------------------------------------------------------------------------|


e|------17-17--17~---8---15--------17-17-----17-17------17-17---20b-------8--|
B|--20b--------------11b-18b---20b-------20b--------20b----------------10----|
G|-------------------------------------------------------------------9-------|
D|---------------------------------------------------------------------------|
A|---------------------------------------------------------------------------|
E|---------------------------------------------------------------------------|


e|--12-10-8------------------------------------------------------------------|
B|----------12-10-8-------12-10-8--------------------------------------------|
G|------------------9-10----------9-10-9-------12-10-9----9-10---------------|
D|---------------------------------------10-12---------12------9-10-12-10-9--|
A|---------------------------------------------------------------------------|
E|---------------------------------------------------------------------------|


e|----------------------------------------17---------------------------------|
B|----------------------------------17-20-----17h20p17----------17h20p17-----|
G|-------------------------------17--------------------17----17--------------|
D|----------------------------19--------------------------19-----------------|
A|--12-8-10-12-------------19------------------------------------------------|
E|-------------------17-20---------------------------------------------------|

e|--------20b-----15h17p15-13h15p13-12h13p12-10h12p10-7-8-10-8-7-10-7-12-10-8|
B|---------------------------------------------------------------------------|
G|--17-----------------------------------------------------------------------|
D|-----19--------------------------------------------------------------------|
A|---------------------------------------------------------------------------|
E|---------------------------------------------------------------------------|


e|---------------------------------------------------------------------------|
B|-12-10-8-------------------------------------------------------------------|
G|---------11-9-7----------9-12-11-9------------9-12-11-9-----------9-11-12--|
D|-----------------9-10-12-----------12-9-10-12----------12-9-10-12----------|
A|---------------------------------------------------------------------------|
E|---------------------------------------------------------------------------|


e|------------7-10b~---------12-15-13-12-------------------------------------|
B|----------8-------------13-------------15-13-12-----------13---------------|
G|--------9-----------/12-------------------------12-----12-----14p12--------|
D|------9---------------------------------------------14--------------14-----|
A|-7-10----------------------------------------------------------------------|
E|---------------------------------------------------------------------------|


e|-------------------------------------------------------------------12h15p12|
B|----------------------------------------------------------------13---------|
G|--------12-14p12---------------------------------------------12------------|
D|-----14----------15-14-12--------------------------------/14---------------|
A|--15----------------------15-12-14-15-12-14-15-12-14-15--------------------|
E|---------------------------------------------------------------------------|


e|-------17p15----------------19p17------------17-20-18-17-------------------|
B|--13---------17-15----15-17------18-17-18-20-------------20-19-17----------|
G|-----12------------17----------------------------------------------19-17---|
D|---------------------------------------------------------------------------|
A|---------------------------------------------------------------------------|
E|---------------------------------------------------------------------------|


e|---------------------------------------------------------------------------|
B|------20-----20------20----------20----------------------------------------|
G|--19b----19b-----19b-----19b-19b-----19p17----19-17------------------------|
D|-------------------------------------------19-------19---17p15-------------|
A|---------------------------------------------------------------17p15-------|
E|----------------------------------------------------------------------17---|

           +
e|------------------------------------------------------------------17-20----|
B|--------------------------------20-------20-------20-------20-/20----------|
G|------------------------17--19b-----19b------19b------19b------------------|
D|-----------------/17-19----------------------------------------------------|
A|--17p15--------------------------------------------------------------------|
E|---------17br--------------------------------------------------------------|


e|--20~-----20-22b-22---15p12----------12-15p12-15p12----------12--15p12-----|
B|------/22-------------------13----13----------------13----13---------------|
G|-------------------------------12----------------------12------------------|
D|---------------------------------------------------------------------------|
A|---------------------------------------------------------------------------|
E|---------------------------------------------------------------------------|
 

e|--19p15----------15--19p15--19p15----------15--19p15----20p17------------17|
B|--------17----17------------------17----17---------------------18----18----|
G|-----------16------------------------16---------------------------17-------|
D|---------------------------------------------------------------------------|
A|---------------------------------------------------------------------------|
E|---------------------------------------------------------------------------|


e|--20p17--20p17------------17---20p17---------------------------------------|
B|----------------18-----18------------18------------------------------------|
G|--------------------17------------------17---------------------------------|
D|--------------------------------------------19-----------------------------|
A|------------------------------------------------20-------------------------|
E|-----------------------------------------------------\13br-----------------|

                                          Repeat until fade
e|------------13-15-17-17/19-15-20--|----------------------------------------|
B|---13-15-17-----------------------|--13-13------------------------10-12----|
G|----------------------------------|--------12-9-9-10-10--10-12-12----------|
D|----------------------------------|----------------------------------------|
A|----------------------------------|----------------------------------------|
E|----------------------------------|----------------------------------------|


************************************

| /   slide up
| \   slide down
| h   hammer-on
| p   pull-off
| ~   vibrato
| +   harmonic
| x   Mute note
| b   Bend
| pb  Pre-bend
| br  Bend release
| pbr Pre-bend release
| brb Bend release bend
Добавлено: 27.11.2015
Вам также может быть интересно:
Другие материалы по этой песне:
  • Аккорды и текст

Страница создана 27.11.2015
http://primanota.ru/neil-zaza/take-on-me-chords.htm
Привет, Гость.
Предлагаем пройти революционный курс по гитаре.
Подарок от PrimaNota.Ru, забирай!