PrimaNota.ru - самый крупный в мире бесплатный архив песенных текстов, аккордов, табулатур и нот


Neil Zaza - Bari - таба, видео

Регистрация Запомнить меня
Войти через:  Facebook Google Twitter Vk Yandex Mail.ru

Neil Zaza - Bari - таба, видео

Печатать
Просмотров: 167
Уроки эстрадного вокала в Санкт-Петербурге
-------------------------------------------------------------------------------
                          Neil Zaza - "Bari" from the Peach CD
-------------------------------------------------------------------------------
Tabbed by: Jim Backston
Twitter: JBackston

INTRO

e|--2--2-----3-3-----------2-2----2-2----3-3----2-2--------------------------|
B|--3--3-----0-0----2-2----3-3----3-3----0-0----3-3----2-2-------------------|
G|--2--2-----0-0----2-2----4-4----2-2----0-0----2-2----2-2-------------------|
D|--0--0-----0-0----2-2----4-4----0-0----0-0----4-4----2-2-------------------|
A|--x--x-----2-2----0-0----2-2----x-x----2-2-----------0-0-------------------|
E|--2--2-----3-3------------------2-2----3-3---------------------------------|


e|--2--2-----3-3-----------2-2----2-2----3-3---------------------------------|
B|--3--3-----0-0----2-2----3-3----3-3----0-0---2-2-2-2-2-2-2-2---------------|
G|--2--2-----0-0----2-2----4-4----2-2----0-0---2-2-2-2-2-2-2-2---------------|
D|--0--0-----0-0----2-2----4-4----0-0----0-0---2-2-2-2-2-2-2-2---------------|
A|--x--x-----2-2----0-0----2-2----x-x----2-2---0-0-0-0-0-0-0-0---------------|
E|--2--2-----3-3------------------2-2----3-3---------------------0-2-3-------|


e|---2-2------------2------2-----------3------3------------------------------|
B|---3-3------------3------3-----------3------3--------2-2-2-2---------------|
G|---2-2------------4----4-------------0----0----------2-2-2-2---------------|
D|---0-0-------2----4--4---------------0--0------------2-2-2-2---------------|
A|---------4-5------2---------------0--x---------------0-0-0-0---------------|
E|------------------------------0-2----3---------3-2-0----------0-2-3--------|

e|---2-2------------2------2-----------3------3------------------------------|
B|---3-3------------3------3-----------3------3--------2-2-2-2---------------|
G|---2-2------------4----4-------------0----0----------2-2-2-2---------------|
D|---0-0-------2----4--4---------------0--0------------2-2-2-2---------------|
A|---------4-5------2---------------0--x---------------0-0-0-0---------------|
E|------------------------------0-2----3---------3-2-0-----------------------|


  VERSE 1 (BEGIN LEAD)
e|-------------5-------------------------------------------------------------|
B|---------5-7---------5-7-8-7h8p7\5-7-8-10-8-7-5h7p5------------------------|
G|-------7-----------7--------------------------------7-7/9------------------|
D|----/7---------------------------------------------------------------------|
A|---------------------------------------------------------------------------|
E|---------------------------------------------------------------------------|


e|-------------5----------10---9-7-9-10--------------------------------------|
B|---------5-7--------5-7---------------10-8-7-5---/12-10--------------------|
G|-------7----------7--------------------------------------------------------|
D|----/7---------------------------------------------------------------------|
A|---------------------------------------------------------------------------|
E|---------------------------------------------------------------------------|

                         x x x x                               x x x x
e|--2-2---3-3--5-5--2-2--2-2-2-2-----10-10--7-7-------5-5---5--5-5-5-5-------|
B|--3-3---3-3--5-5--3-3--3-3-3-3-----10-10--8-8--7-7--5-5---5--5-5-5-5-------|
G|--2-2---4-4--2-2-------4-4-4-4------7--7--7-7--7-7--2-2---2--2-2-2-2-------|
D|--4-4---5-5--2-2--------------------7--7--9-9--7-7--2-2---2----------------|
A|---------------------------------------------------------------------------|
E|---------------------------------------------------------------------------|


                         x x x x                                      
e|--2-2---3-3--5-5--2-2--2-2-2-2-----10-10--7-7------------------------------|
B|--3-3---3-3--5-5--3-3--3-3-3-3-----10-10--8-8--2-2-2-2-2-2-2-2-------------|
G|--2-2---4-4--2-2-------4-4-4-4------7--7--7-7--2-2-2-2-2-2-2-2-------------|
D|--4-4---5-5--2-2--------------------7--7--9-9--2-2-2-2-2-2-2-2-------------|
A|-----------------------------------------------0-0-0-0-0-0-0-0-------------|
E|---------------------------------------------------------------------------|


  VERSE 2
e|------------------17-------------------------------------------------------|
B|------------17-19---------17-19-20-19h20p19\17-19-20-22-20-19-17h19p17-----|
G|---------19------------19--------------------------------------------------|
D|----/19--------------------------------------------------------------------|
A|---------------------------------------------------------------------------|
E|---------------------------------------------------------------------------|


e|--------------------------17-------------22-21-19-21-22-------------19-17--|
B|--------------------17-19----------17-19----------------22-20-19-17--------|
G|---19/21---------19-------------19-----------------------------------------|
D|--------------/19----------------------------------------------------------|
A|---------------------------------------------------------------------------|
E|---------------------------------------------------------------------------|


e|----9-10p9--9\7-7\5-5\3--2-3-5-2---------------------------------7-9-12----|
B|----------------------------------5-7-7b-7-5h7p5--------------10-----------|
G|--9----------------------------------------------7-7/9------9--------------|
D|----------------------------------------------------------7----------------|
A|---------------------------------------------------------------------------|
E|---------------------------------------------------------------------------|


e|--10p9--9\7-7\5-5\3--2-3-5-2---------------------19-17---------------------|
B|---------------------------------17-19-19b-19-17---------------------------|
G|---------------------------------------------------------------------------|
D|---------------------------------------------------------------------------|
A|---------------------------------------------------------------------------|
E|---------------------------------------------------------------------------|

  middle                 x x x x                               x x x x
e|--2-2---3-3--5-5--2-2--2-2-2-2-----10-10--7-7-------5-5---5--5-5-5-5-------|
B|--3-3---3-3--5-5--3-3--3-3-3-3-----10-10--8-8--7-7--5-5---5--5-5-5-5-------|
G|--2-2---4-4--2-2-------4-4-4-4------7--7--7-7--7-7--2-2---2--2-2-2-2-------|
D|--4-4---5-5--2-2--------------------7--7--9-9--7-7--2-2---2----------------|
A|---------------------------------------------------------------------------|
E|---------------------------------------------------------------------------|

                         x x x x                                      
e|--2-2---3-3--5-5--2-2--2-2-2-2-----10-10--7-7------------------------------|
B|--3-3---3-3--5-5--3-3--3-3-3-3-----10-10--8-8--2---------------------------|
G|--2-2---4-4--2-2-------4-4-4-4------7--7--7-7--2---------------------------|
D|--4-4---5-5--2-2--------------------7--7--9-9--2---------------------------|
A|-----------------------------------------------0--2--4--5--7-9-10----------|
E|---------------------------------------------------------------------------|


e|--------17-17----17-17----17----17----17-17---15-17b-17-17-15-15-----------|
B|----/15-------15-------15----15----15--------------------------------------|
G|---------------------------------------------------------------------------|
D|---------------------------------------------------------------------------|
A|---------------------------------------------------------------------------|
E|---------------------------------------------------------------------------|


e|----15h17p15\14--14b-14-14-12-12---12h14p12\10--12-12/14-10----------------|
B|-----------------------------------------------------------------14-15-----|
G|-----------------------------------------------------------------------14--|
D|---------------------------------------------------------------------------|
A|---------------------------------------------------------------------------|
E|---------------------------------------------------------------------------|


e|---------------------------------------------------------------------------|
B|---------------------------------------------------------------------------|
G|------------------------------------------------12-16-14-12----------------|
D|---------------------------------------12-14-16-------------16-12-14-16----|
A|-----------12-14-15-----------12-14-15-------------------------------------|
E|--12-14-15-----------12-14-15----------------------------------------------|


e|--------------------14-17-15-14---------------------17b--------------------|
B|-----------13-15-17--------------17-15-13----------------------------------|
G|--12-14-16--------------------------------16-14-12-------------------------|
D|---------------------------------------------------------------------------|
A|---------------------------------------------------------------------------|
E|---------------------------------------------------------------------------|

  Turnaround

e|--2----2----0-----3--------2----2--------2-----2-----0-----3----------2----|
B|--3----3----0-----0---2----3----3--2-----3-----3-----0-----0-----2----3----|
G|--4----2----1-----0---2----4----2--2-----4-----2-----1-----0-----2----4----|
D|--4----0----2-----0---2----4----0--2-----4-----0-----2-----0-----2----4----|
A|--2---------2-----2---0----2-------0-----2-----------2-----2-----0----2----|
E|------------0-----3----------------------------------0-----3---------------|

                            +  +  +   
e|------------------------------------------------17-19----------------------|
B|-------10---------------------------------15-17b------17-15-15h17~---------|
G|---7-9b---9b-9-7-7h9-------------------------------------------------------|
D|-/9------------------------9-----------------------------------------------|
A|-----------------------7-9---7---5b----------------------------------------|
E|--------------------/7---------7----7-5-7----------------------------------|

e|------------17-19----------------------------------------------------------|
B|---17-15-17-------17-17p15----12---12---14-----15-----17-------------------|
G|-----------------------------------14b--16b----17b----19b------------------|
D|---------------------------------------------------------------------------|
A|---------------------------------------------------------------------------|
E|---------------------------------------------------------------------------|

  
e|--2--2-----3-3-----------2-2----2-2----3-3----2-2--------------------------|
B|--3--3-----0-0----2-2----3-3----3-3----0-0----3-3----2-2-------------------|
G|--2--2-----0-0----2-2----4-4----2-2----0-0----2-2----2-2-------------------|
D|--0--0-----0-0----2-2----4-4----0-0----0-0----4-4----2-2-------------------|
A|--x--x-----2-2----0-0----2-2----x-x----2-2-----------0-0-------------------|
E|--2--2-----3-3------------------2-2----3-3---------------------------------|


e|--2--2-----3-3-----------2-2----2-2----3-3---------------------------------|
B|--3--3-----0-0----2-2----3-3----3-3----0-0----2-----5----10----------------|
G|--2--2-----0-0----2-2----4-4----2-2----0-0------2----2------9--------------|
D|--0--0-----0-0----2-2----4-4----0-0----0-0--------2----2------7------------|
A|--x--x-----2-2----0-0----2-2----x-x----2-2---------------------------------|
E|--2--2-----3-3------------------2-2----3-3---------------------------------|


e|-------------------17---------17-19-21-22--21-22-24-24---------------------|
B|---14-------17--------17---------------------------------------------------|
G|-----14-------14---------14------------------------------------------------|
D|-------14-------14---------------------------------------------------------|
A|---------------------------------------------------------------------------|
E|---------------------------------------------------------------------------|
  Outro
e|-------------5-------------------------------------------------------------|
B|---------5-7---------5-7-8-7h8p7\5-7-8-10-8-7-5h7p5------------------------|
G|-------7-----------7--------------------------------7-7/9------------------|
D|----/7---------------------------------------------------------------------|
A|---------------------------------------------------------------------------|
E|---------------------------------------------------------------------------|


e|-------------7-5----7-9-10---9-7-9-10---/14-15-14h15p14--------/19-17------|
B|-------5-7-8------7-------------------------------------17-15--------------|
G|-----7---------------------------------------------------------------------|
D|--/7-----------------------------------------------------------------------|
A|---------------------------------------------------------------------------|
E|---------------------------------------------------------------------------|

e|------------------17-------------------------------------------------------|
B|------------17-19---------17-19-20-19h20p19\17-19-20-22-20-19-17h19p17-----|
G|---------19------------19--------------------------------------------------|
D|----/19--------------------------------------------------------------------|
A|---------------------------------------------------------------------------|
E|---------------------------------------------------------------------------|


e|-----------------------------19-17--17-19-21-19-22-21-19-21-22-------------|
B|--------------------17-19-20-----------------------------------22-20-19----|
G|---19/21---------19--------------------------------------------------------|
D|--------------/19----------------------------------------------------------|
A|---------------------------------------------------------------------------|
E|---------------------------------------------------------------------------|



e|-----------19-17-----2--2-----3-3----------2-2-----------------------------|
B|--17h19p17-----------3--3-----0-0----2-2---3-3-----------------------------|
G|---------------------2--2-----0-0----2-2---4-4-----------------------------|
D|---------------------0--0-----0-0----2-2---4-4-----------------------------|
A|---------------------x--x-----2-2----0-0---2-2-----------------------------|
E|---------------------2--2-----3-3------------------------------------------|


************************************
 
| /   slide up
| \   slide down
| h   hammer-on
| p   pull-off
| ~   vibrato
| +   harmonic
| x   Mute note
| b   Bend
| pb  Pre-bend
| br  Bend release
| pbr Pre-bend release
| brb Bend release bend
 
************************************
Добавлено: 27.11.2015
Другие материалы по этой песне:
  • Аккорды и текст

Страница создана 27.11.2015
http://primanota.ru/neil-zaza/bari-chords.htm
Привет, Гость.
Предлагаем пройти революционный курс по гитаре.
Подарок от PrimaNota.Ru, забирай!