PrimaNota.ru - самый крупный в мире бесплатный архив песенных текстов, аккордов, табулатур и нот


Neil Young - Out Of Control - текст песни, таба, видео

Регистрация Запомнить меня
Войти через:  Facebook Google Twitter Vk Yandex Mail.ru

Neil Young - Out Of Control - текст песни, таба, видео

Печатать
Просмотров: 133
-------------------------------------------------------------------------------
                             OUT OF CONTROL – Neil Young
-------------------------------------------------------------------------------
Tabbed by: Nick Celender
Email: nick.celender@gmail.com
Date: 7/25/2008
Notes: Copped this from a youtube video being played on keyboard, may not be the same 
as on the album.
Tuning: Standard

Intro


e|--------0-0-0-0-0-0---------0-0-0-0-0-0------|
B|--------1-1-1-1-1-1---------1-1-1-1-1-1------|
G|--------0-0-0-0-0-0---------0-0-0-0-0-0------|
D|--------2-2-2-2-2-2---------2-2-2-2-2-2------|
A|--3-----3-3-3-3-3-3-----3---3-3-3-3-3-3------|
E|-----------------------3---------------------|


C                      Am                 G                    Bm
Once, high on a hill, there was a song, nothing was wrong


e|---------------------------------------------------------|
B|---------------------------------------------------------|
G|--------------------------2------------------------------|
D|-----------------0-----------------------0---------------|
A|---2--3----------------------3--------------------3------|
E|---------------------------------------------------------|
    That's        when     time           stood    still

C                Am                    G                        Bm
Now, lovers are lost, caught in their dreams, wrapped in their thoughts


e|------------------------------------------------------------------|
B|------------------------------------------------------------------|
G|--------------------------2---------------------------------------|
D|-----------------0--------------------------------0---------------|
A|---2--3---------------------------------3-----------------3-------|
E|------------------------------------------------------------------|
   Bound by      the      depth          of        their    love


e|---------------|
B|---------------|
G|---------------|
D|---------------|
A|--3---2---0----|
E|---------------|

   F       C          G
If I could hold on to you
   F       C          G
If I could hold on to you


C                  Am           G                      Bm
Somewhere near the end, lovers pretend, fake what they feel

e|------------------------------------------------------------|
B|------------------------------------------------------------|
G|-------------------------------2----------------------------|
D|-----------------0--------------------------0---------------|
A|---2--3---------------------------3-----------------3-------|
E|------------------------------------------------------------|
   Take what       they         get          from     love


C                Am                 G              Bm
Start losing the drive, four out of five, staying alive

e|-------------------------------------------------------------|
B|-------------------------------------------------------------|
G|-------------------------------2-----------------------------|
D|-----------------0---------------------------0---------------|
A|---2--3---------------------------3-----------------3--------|
E|-------------------------------------------------------------|
   Without        the           feeling        of      love

e|---------------|
B|---------------|
G|---------------|
D|---------------|
A|--3---2---0----|
E|---------------|

   F     C          G
If I can hang on to you
   F     C          G
If I can hang on to you
              F                C
If the sky is fire and hell is blue
              F                 C
If all of our dreams don't come true
              F                 C
If the sky is fire and hell is blue
           G
I'll cover you, I'll cover you

F       C     F       C
Sky is fire, hell is blue
F       C     F       C
Sky is fire, hell is blue


That's why I'm out of control
Tear myself down, build myself up
Tear myself down again

I'm talking to you
Trying to get through
Don't want to hide
Lost in the mirror of love

   F      C          G
If I can hold on to you
   F      C          G
If I can hold on to you

=================================================================================
Добавлено: 28.05.2012
Другие материалы по этой песне:
  • Аккорды и текст

Страница создана 28.05.2012
http://primanota.ru/neil-young/out-of-control-chords.htm
Привет, Гость.
Предлагаем пройти революционный курс по гитаре.
Подарок от PrimaNota.Ru, забирай!