PrimaNota.ru - самый крупный в мире бесплатный архив песенных текстов, аккордов, табулатур и нот


Neil Young - The Needle & The Damage Done4 - таба, видео

Регистрация Запомнить меня
Войти через:  Facebook Google Twitter Vk Yandex Mail.ru

Neil Young - The Needle & The Damage Done4 - таба, видео

Печатать
Просмотров: 86
		   Deja.com: Re: REQ:The Needle & the Damage Done
            Just in time for HOLIDAY SHOPPING! Click to visit.

      My Deja  


             Home 
             >>   







                              Tour Titanium Irons (graphite shaft)
                              Lowest Price: $419
                              With 12 more buyers!






            Explore More:
            Free personalized email
            Signup now! 
            Gifts For Your Pets
            Free Feast @ PETsMART.com 
            SonicNet
            The best music online 
            Search for Jobs!
            JobOptions 
            TireRack.com
            Quality, Price & Service 



                    ratings    discussions    communities  

                    back to search results 



            >> Forum: alt.guitar.tab 
                  Power Search Help | Feedback 


               >> Thread: REQ:The Needle & the Damage Done 

                 >> Message 6 of 60 

                   


            Subject: Re: REQ:The Needle & the Damage Done
            Date:09/05/1999
            Author:Glenn Ketchum  ketchumg@nb.sympatico.ca>
              Posting History 

             

            Message segment 2 of 2 - Get Previous Segment - Get All 2 Segments 
                    I've seen the needle and the damage done,
                    A little part of it in everyone,
                    But every junkie's like a setting sun.
             
                    END:
                    E|-----2-----0--------------|-----------0--------------|     
                B|-----------------3-----3--|-----3-----3-----3-----3--|         
            G|--------------------------|-----2-----2-----2-----2--|         
            D|--0-----0-----0-----0-----|--------------------------|         
            A|--------------------------|--3-----3-----3-----3-----|         
            E|--------------------------|--------------------------| 
             
                    E|-----------0--------------|-----0-----0--------------|     
                B|-----3-----3-----3-----3--|-----3-----3--------------|         
            G|-----0-----0-----0-----0--|-----0-----0--------------|         
            D|--------------------------|--------------------------|         
            A|--2-----2-----2-----2-----|--1-----1-----------------|         
            E|--------------------------|--------------------------| 
             
             
                    David Katz' Comments:
                    For the following measure (the first one), I usually try to 
            get more of         the bass notes notes in by playing essentially a 
            muted Esus7.  What's         written is a partial form of this 
chord.
             
                    Also, I believe this is the
                    version from Harvest (second measure below), so we may want 
            to either add
                    the other G-string run as an alternate, or just mention that 
            this is the 
             
                    Harvest version.  My point is that some people who try to 
            access the web 
             
                    site may only be familiar with the Unplugged version.
             
                    E|-----0--0--0-----0--0--0--|-----0-----0-----0-----0--|     
                B|-----0--0--0-----0--0--0--|-----0-----0-----0-----0--|         
            G|-----2--2--2-----2--2--2--|--------------------------|         
            D|--------------------------|-------------2/4----2-----|         
            A|--------------------------|-------0h2----------------|         
            E|--0-----------0-----------|--0-----------------------|             
            done.
             
             
             
            Benjamin Brooks's News wrote:
             
            > does anyone have the lyrics and chords to this song,  please don't 
            just tell
            > me to go to , I know its there but my internet access is very 
            limited
            > and tho I get free email I have to pay for actual net time.
            > Thanx :)

                     Previous in search   ·   Next in search >> 


            Track this thread for me

            Subscribe to alt.guitar.tab 
            Mail this message to a friend 
            View original Usenet format 
            Create a custom link to this message from your own Web site


            Search Discussions  For a more detailed search in Discussions go 
            to Power Search
            Search only in: alt.guitar.tab
             All Deja.com 
            Search for:  
            Search   recentpastall Messages 

        
       Arts & Entertainment   Automotive   Computing & Tech   Consumer 
      Electronics   Health & Fitness  
       Home & Family   Lifestyles   Money   Politics & Media   Recreation   
      Sports   Travel  
            FREE STUFF! - Trade with Datek - GET IT NOW @ NECX - eBay Auctions - 
            The BEST Music Online - MAIL.COM - Get FREE Health Info@drkoop.com - 
            BUY AT COST at eCOST.com - Search for Jobs! JobOptions - Wine.com - 
            VH1.com - Onsale Auctions 
            Copyright © 1995-1999 Deja.com, Inc. All rights reserved. 
            Trademarks · Terms & Conditions of Use · Site Privacy Statement. 
            Advertise With Us!  |  About Deja.com 


     
Добавлено: 09.10.2013
Другие материалы по этой песне:
  • Аккорды и текст

Страница создана 09.10.2013
http://primanota.ru/neil-young/needle-and-damage-done4-chords.htm
Привет, Гость.
Предлагаем пройти революционный курс по гитаре.
Подарок от PrimaNota.Ru, забирай!