PrimaNota.ru - самый крупный в мире бесплатный архив песенных текстов, аккордов, табулатур и нот


Neil Young - Mr dissappointment - таба, видео

Регистрация Запомнить меня
Войти через:  Facebook Google Twitter Vk Yandex Mail.ru

Neil Young - Mr dissappointment - таба, видео

Печатать
Просмотров: 56


heres the intro to Mr. Dissappointment from the album Are you Passionate


/ = SLIDE
~ = HOLD NOTE/TREMELO

-----------------------------------------
------------------------------------------
-----4---7/12~--12-11~----------------------
--5-----------------------------------------
---------------------------------------------
---------------------------------------------

--------------------------------------------
--------------------------------------------
---7--9-------------7-----------------------
----------9---7-7~----7---9--10---9---12~----
--------------------------------------------
---------------------------------------------

------------------------------------------
------------------------------------------
-------------------------------------------
-/9--7----------------------------------------
--------9~-----5--9--7~---------------------
--------------------------------------------

this is a great song by neil young.. hopefully this tab will help you become a 
neil young guitar master


Добавлено: 07.11.2013
Другие материалы по этой песне:
  • Аккорды и текст

Страница создана 07.11.2013
http://primanota.ru/neil-young/mr-dissappointment-chords.htm
Привет, Гость.
Предлагаем пройти революционный курс по гитаре.
Подарок от PrimaNota.Ru, забирай!