PrimaNota.ru - самый крупный в мире бесплатный архив песенных текстов, аккордов, табулатур и нот


Neil Halstead - Full Moon Rising - таба, видео

Регистрация Запомнить меня
Войти через:  Facebook Google Twitter Vk Yandex Mail.ru

Neil Halstead - Full Moon Rising - таба, видео

Печатать
Просмотров: 225
Couldn't find a tab for this song, so decided to write one! This is my first tab guys, 
and I'm not that great at guitar so be nice :) I think it's about 95% accurate.
Also the lyrics seemed to differ from site to site so I've included what I think are the 
right ones :) enjoy!


Artist: Neil Halstead
Song: Full Moon Rising
Tuning: Open C (CGCGCE)
Tabbed by Nick G


Intro

E|----------------------------------------------------------------------|
C|------------0----------------0----------------0--------------------0--|
G|--------0-------0--------0-------0--------0-------0-------------------|   x 4
C|------0-------0--------0-------0--------0-------0--------2h4---2p0----|
G|--2-------2-------------------------------------------0------0--------|
C|-------------------5-------5--------0-------0-------------------------|



Verse

'Tell me there's a full moon risin', big and bright on the horizon'

E|----------------------------------------------------------------------|
C|------------0----------------0----------------0--------------------0--|
G|--------0-------0--------0-------0--------0-------0-------------------|
C|------0-------0--------0-------0--------0-------0--------2h4---2p0----|
G|--2-------2-------------------------------------------0------0--------|
C|-------------------5-------5--------0-------0-------------------------|


'Are you feelin' strange? A butterfly fallin'...'

E|-------------------------------------------------------------------------------------|
C|------------0----------------0----------------0---------------0-------------------0--|
G|--------0-------0--------0-------0--------0-------0-------0-------0------------------|
C|------0-------0--------0-------0--------0-------0-------2-------2-------2h4---2p0----|
G|--2-------2------------------------------------------0------0--------0------0--------|
C|-------------------5-------5--------0-------0----------------------------------------|


'Thought that it would be so easy, paid our debts and now you're leavin''

E|----------------------------------------------------------------------|
C|------------0----------------0----------------0--------------------0--|
G|--------0-------0--------0-------0--------0-------0-------------------|
C|------0-------0--------0-------0--------0-------0--------2h4---2p0----|
G|--2-------2-------------------------------------------0------0--------|
C|-------------------5-------5--------0-------0-------------------------|


'Closin' your eyes, got your momma's eyes...'

E|-------------------------------------------------------------------------------------|
C|------------0----------------0----------------0---------------0-------------------0--|
G|--------0-------0--------0-------0--------0-------0-------0-------0------------------|
C|------0-------0--------0-------0--------0-------0-------2-------2-------2h4---2p0----|
G|--2-------2------------------------------------------0------0--------0------0--------|
C|-------------------5-------5--------0-------0----------------------------------------|



Chorus

'You wouldn't tear love apart for less'

E|------------------------------------------------------------------|
C|------------0-------0-------0---------------0--------------0------|
G|--------4-------4-------4-------0-------0-------0------0-------0--|
C|------0-------0-------0-------0-------4-------4------4-------4----|
G|-----------------------------------2------2-------2------2--------|
C|--5-------5-------5-------5---------------------------------------|


'Standin' by the door in your red dress'

E|------------------------------------------------------------------|
C|------------0-------0-------0---------------0--------------0------|
G|--------4-------4-------4-------0-------0-------0------0-------0--|
C|------0-------0-------0-------0-------4-------4------4-------4----|
G|-----------------------------------2------2-------2------2--------|
C|--5-------5-------5-------5---------------------------------------|


'You're just a little girl, hidin' in the dark'

E|--------------------------------------------------------------------------------------------------|
C|------------0-------0-------0----------------0--------------0----------------0---------------0----|
G|--------4-------4-------4-------0--------0-------0------0-------0--------0-------0-------0-------0|
C|------0-------0-------0-------0--------4-------4------4-------4--------2-------2------2--------2--|
G|-----------------------------------2-------2-------2------2--------0-------0-------0-------0------|
C|--5-------5-------5-------5-----------------------------------------------------------------------|


'Tell me how does it feel, when lights go up...'

E|------------------------------------------------------------------|
C|------------0-------0-------0---------------0--------------0------|
G|--------0-------0-------0-------0-------0-------0------0-------0--|
C|------0-------0-------0-------0-------0-------0------0-------0----|
G|------------------------------------------------------------------|
C|--5-------5-------5-------5--------0------0-------0------0--------|



Instrumental

E|---------------------------------|
C|--7--------5------4-------0------|
G|-------0-------0------0-------0--|   x 2
C|-----0-------0------0-------0----|
G|---------------------------------|
C|--0------0--------0-----0--------|

E|---------------------------------|
C|--7--------5------4-------0------|
G|-------0-------0------0-------0--|   x 2
C|-----0-------0------0-------0----|
G|---------------------------------|
C|--5------5--------5-----5--------|

E|---------------------------------|
C|--7--------5------4-------0------|
G|-------0-------0------0-------0--|   x 2
C|-----0-------0------0-------0----|
G|---------------------------------|
C|--0------0--------0-----0--------|

E|---------------------------------|
C|--7--------5------4-------0------|
G|-------0-------0------0-------0--|   x 2
C|-----0-------0------0-------0----|
G|---------------------------------|
C|--5------5--------5-----5--------|



Pre-verse

'You've always gotta go one more, and now you've gone and done it all...'

E|-----------------------------------------------------------------------------------|
C|------------0--------------0----------------0---------------0----------------0-----|
G|--------0-------0------0-------0--------0-------0-------0-------0--------0-------0-|
C|------0-------0------0-------0--------2-------2------2--------2--------0-------0---|
G|--2-------2-------2------2--------0-------0-------0-------0------------------------|
C|-------------------------------------------------------------------5-------5-------|

-------------------------------------------------|
---------0----------------0---------------0------|
-----0-------0--------0-------0-------0-------0--|
---0-------0--------0-------0-------0-------0----|
-------------------------------------------------|
5------5--------0-------0--------0------0--------|


E|---------------------------------|
C|-----------0--------------0------|
G|-------0-------0------0-------0--|
C|-----0-------0------0-------0----|
G|---------------------------------|
C|--0------0-------0------0--------|



Verse

'Drivin' past the old school buildin', always lookin' for somethin''
'What you lookin' for? What you lookin' for?'
'Tell me that I will go crazy, or do we just put it all on hold?'
'Lookin' for love, what a big idea...'


Chorus

'You wouldn't tear love apart for less'
'Standin' by the door in your red dress'
'You're just a little girl, hidin' in the dark'
'Tell me how does it feel, when the lights go up...'


Instrumental


Pre-verse

'You've always gotta go one more, and now you've gone and done it all...'
'You've always gotta go one more, and now you've gone and done it all...'


Intro x 2


Verse

'Tell me there's a full moon risin', big and bright on the horizon'
'Are you feelin' strange? A butterfly fallin'...'
'Well I don't know much about nothin', but I know what I believe in'
'If you've got a plan, I've got a reason'
'If you've got a plan, I've got a reason'


Chorus

'You wouldn't tear love apart for less'
'Standin' by the door in your red dress'
'You're just a little girl, hidin' in the dark'
'Tell me how does it feel, when the lights go up...'


Instrumental


Finish on:

E|-----|
C|--0--|
G|--0--|
C|--0--|
G|--0--|
C|--0--|


And there you have it, I hope it was reasonably accurate! ;)
Please leave a rating if you thought this tab was good! :)
Добавлено: 04.09.2013
Другие материалы по этой песне:
  • Аккорды и текст

Страница создана 04.09.2013
http://primanota.ru/neil-halstead/full-moon-rising-chords.htm
Привет, Гость.
Предлагаем пройти революционный курс по гитаре.
Подарок от PrimaNota.Ru, забирай!