PrimaNota.ru - самый крупный в мире бесплатный архив песенных текстов, аккордов, табулатур и нот


Neil Halstead - Digging Shelters - таба, видео

Регистрация Запомнить меня
Войти через:  Facebook Google Twitter Vk Yandex Mail.ru

Neil Halstead - Digging Shelters - таба, видео

Печатать
Просмотров: 149
-------------------------------------------------------
           DIGGING SHELTERS - Neal Halstead                     
-------------------------------------------------------
Tabbed by: Jeremy Lavine

Tuning: Open C (C-G-C-G-C-e) with capo on the 4th fret

Instrumental #1 part 1: 
e|--------------------------------------------------|
B|-------0-----------0-----------0------------------|
G|-----------0-----------0-----------0--------------|
D|---0-----0-----0-----0-----2-----2---2h4---4p2p0--|
A|-------------2---2-------0---0-----------0--------|
E|-0---0--------------------------------------------|

Instrumental #1 part 2:
e|--------------------------------------------------|
B|-------0-----------0-----------0-----------0------|
G|-----------0-----------0-----------0-----------0--|
D|---0-----0-----0-----0-----0-----0-----0-----0----|
A|-2---2-------2---2--------------------------------|
E|-------------------------5---5-------5---5--------|


Verse part 1:
       "Computer what's the point of this ..
e|---------------------------------------------------|
B|-------0-----------0-----------0-------------------|
G|-----------0-----------0-----------0---------------|
D|---0-----0-----0-----0-----0-----0-----------------|
A|-------------2---2---------------------------------|
E|-0---0-------------------5---5---------------------|

Verse part 2:
 "... you do all the thinking, where we ..."
e|---------------------------------------------------|
B|-------0-----------0-----------0-----------0-------|
G|-----------0-----------0-----------0-----------0---|
D|---0-----0-----0-----0-----0-----0-----0-----0-----|
A|-2---2-------0---0---------------------------------|
E|-------------------------5---5-------5---5---------|

Chorus part 1:
"I know it's falling down ..." 
e|---------------------------------------------------|
B|-------0-----------0-----------0-------------------|
G|-----------0-----------0-----------0---------------|
D|---0-----0-----0-----0-----0-----0-----------------|
A|---------------------------------------------------|
E|-0---0-------5---5-------5---5---------------------|

Chorus part 2:
"got my headphones on and I won't hear a sound..."
e|---------------------------------------------------|
B|-------0-----------0-----------0-----------0-------|
G|-----------0-----------0-----------0-----------0---|
D|---0-----0-----0-----0-----0-----0-----0-----0-----|
A|-2---2-------0---0---------------------------------|
E|-------------------------5---5-------5---5---------|


Instrumental #2 part 1:
e|---------------------------------------------------|
B|-2h4-----4~~---4~~~--2-----0-----0-----------0-----|
G|-------------0-----------0-----------0-----------0-|
D|-----0-----0-----0-----0-----0-----0-----0-----0---|
A|---------------------------2---2-------2---2-------|
E|-0-----0-------0---0-------------------------------|

Instrumental #2 part 2:
e|---------------------------------------------------|
B|-2-----2-----2/4---4\2p0-------0-----------0-------|
G|-----------0-----------------------0-----------0---|
D|---2-----2-------4---------0-----0-----0-----0-----|
A|-0---0-------0-----0-----2---2-------2---2---------|
E|---------------------------------------------------|

************************************
| /   slide up
| \   slide down
| h   hammer-on
| p   pull-off
| ~   vibrato
************************************

==================
Sequence / lyrics
==================

--- Intro ---
[Instrumental #1 part 1]
[Instrumental #1 part 2]
[Instrumental #1 part 1]
[Instrumental #1 part 2]

--- 1st Verse ---
[Verse part 1] computer what's the point of this
[Verse part 2] you do all the thinking where we
[Verse part 1] just digging shelters in the snow
[Verse part 2] build a house of dream and domino(es)

--- Chorus ---
[Chorus part 1] I know it's falling down got my   
[Chorus part 2] headphones on and I won't hear a sound
[Chorus part 1] yeah it's all broke down
[Chorus part 2] eyes out on the road but no one comes
                 along when you want 'em

--- 1st Bridge ---
[Instrumental #2 part 1] to
[Instrumental #2 part 2]
[Instrumental #2 part 1]
[Instrumental #2 part 2] let your

--- 2nd Verse ---
[Verse part 1] hair hang long yeah that
[Verse part 2] old north wind is blowing through these
                cracked up ports
[Verse part 1] and you won't feel so strong
[Verse part 2] voices on the street yeah it's closing 
                time again

--- 2nd Bridge ---               
[Instrumental #1 part 1]
[Instrumental #1 part 2]
[Instrumental #1 part 1]
[Instrumental #1 part 2]

---- Repeat 1st Verse ---
---- Repeat Chorus ---

--- 3rd (and final) Bridge ---
[Instrumental #2 part 1] to
[Instrumental #2 part 2]
[Instrumental #2 part 1]
[Instrumental #2 part 2]

End with a strum on all strings open

============================
Notes:
I figured this out using this video: 
   https://www.youtube.com/watch?v=QUVy-3s9kAg
Добавлено: 25.10.2013
Другие материалы по этой песне:
  • Аккорды и текст

Страница создана 17.06.2013
http://primanota.ru/neil-halstead/digging-shelters-chords.htm
Привет, Гость.
Предлагаем пройти революционный курс по гитаре.
Подарок от PrimaNota.Ru, забирай!