PrimaNota.ru - самый крупный в мире бесплатный архив песенных текстов, аккордов, табулатур и нот


Neil Diamond - Youll Forget - аккорды и текст, видео

Регистрация Запомнить меня
Войти через:  Facebook Google Twitter Vk Yandex Mail.ru

Neil Diamond - Youll Forget - аккорды и текст, видео

Печатать
Просмотров: 75
Youll Forget
Neil Diamond
                                "You'll Forget"
                                (Neil  Diamond)
                                 Neil  Diamond
                              Just For You,  1967

Intro [2x, drums enter 2nd time]:

        acoustic guitar 1:

        G7 [implied]
        v   v   v   v    v   v   v   v
        ----------------|----------------|
        ----------------|----------------|
        ----0-----------|----0-----------|
        --------3-0-----|------3---0-----|
        --------------3-|--------------3-|
        3---------------|3---------------|

        acoustic guitar 2:

        G7 [implied]
        v   v   v   v    v   v   v   v
        ----3---1-------|----3-1---------|
        ----------3---1-|----------3---1-|
        0---------------|0---------------|
        ----------------|----------------|
        ----------------|----------------|
        ----------------|----------------|

Verses 1 & 2:

        Dm                                  G                 Dm
        / / / /  / / / /  / / / /  / / / /  / / / /  / / / /  / / / /  / / / /

                          G        C
        / / / /  / / / /  / / / /  / / / /

Chorus:

        G        C        G        C        G        C        G        C
        / / / /  / / / /  / / / /  / / / /  / / / /  / / / /  / / / /  / / / /

        Dm
        / / / /  / / / /

[Repeat intro]

[Verse 2]

[Repeat chorus]

[Repeat intro]

Bridge:

        C        D        F        D        C        D        F        D
        / / / /  / / / /  / / / /  / / / /  / / / /  / / / /  / / / /  / / / /

[Repeat chorus]

[Repeat intro, w/organ]

[Repeat chorus, fade]

Questions? Comments? E-mail Alex at springalo430@hotmail.com [formerly 
diamhed@aol.com]
     
Добавлено: 02.09.2013
Другие материалы по этой песне:
  • Аккорды и текст

Страница создана 02.09.2013
http://primanota.ru/neil-diamond/youll-forget-chords.htm
Привет, Гость.
Предлагаем пройти революционный курс по гитаре.
Подарок от PrimaNota.Ru, забирай!