PrimaNota.ru - самый крупный в мире бесплатный архив песенных текстов, аккордов, табулатур и нот


Negrita - Sex - таба, видео

Регистрация Запомнить меня
Войти через:  Facebook Google Twitter Vk Yandex Mail.ru

Negrita - Sex - таба, видео

Печатать
Просмотров: 129
Уроки эстрадного вокала в Санкт-Петербурге
		   From - Fri Dec 11 18:59:58 1998

Titolo: Sex
Autore: Negrita
Album : XXX
by ReD

  A  D  Fa#m	E  A	D Fa#m  E
-------|-------------------|-------------4-------------------------|-------------|
-------|---5-------5-------|---5-----------5-5-----5-------5-------|---5-----5---|
---2-4-|/6---4-(4)---4-2-4/|-6---4-4-(4)-------4/6---4-(4)---4-2-4/|-6---4-4---4-|X 2
-4-----|-------------------|---------------------------------------|-------------|
-------|-------------------|---------------------------------------|-------------|
-------|-------------------|---------------------------------------|-------------|

 A        D    D A
--------------------------|
---------5-3-(3)-3--------|
-2-(4)/6---2-(2)-2--2-(2)-|
-----------0-(0)-0--2-(2)-|
--------------------0-(0)-|
--------------------------|

     A               Mi/A                     D
Fare sesso nascosti in un cesso fumarsi una Marlboro dopo l'amplesso oppure farlo in
----------------------------------------------|--------------------------------------|
----------------------------------------------|-3-----------3----(3)p2-2-------------|
-----2-----------------1----(1)---2-----------|-2-2---------2----(2)-----------------|
-----------------------2----(2)----------0----|-0----0------0----(0)-----------------|
--------------0-------------------------------|-----------------------------0--------|
----------------------------------------------|--------------------------------------|

 A                  Mi/A                        D
macchina di fianco alla strada buscarsi un raffreddore male che vada sentirsi un po'
----------------------------------------------|--------------------------------------|
----------------------------------------------|---3---------3----(3)-2---------------|
-2------------------1------(1)----2-----------|---2--2------2----(2)----2------------|
-2----2-------------2------(2)----2--------0--|---0----0----0----(0)--------------2--|
-0----------0------------------0--------------|--------------------------------------|
----------------------------------------------|--------------------------------------|


   Bm                                  D       A
animale, un po' primitivi sentire che respiri, sentire che vivi.
-------------------------------------|------------2--------------------|---------------
------------3----------------3----0--|--3---------3---------------3--0-|----------5----
---4--------4----------------4----0--|--2---------2---------------2--2-|-2(4)/6--------
---4--------4----------------4----0--|--0---------0---------------0--0-|---------------
---2--------2----------------2-------|---------------------------------|---------------
-------------------------------------|---------------------------------|---------------

  D    D    A
--------------------|
--3-(3)-3-3---------|
--2-(2)-2-2---2-(2)-|
--0-(0)-0-0-0-2-(2)-|
--------------0-(0)-|
--------------------|

                  A          Mi/A                            D
E convincere i tuoi ad andare in vacanza spedirli un giorno al mare e farlo in ogni stanza

                A              Mi/A                 D
provare le ricette, colaudare la cucina usare la Nutella, usare la farina

                 Bm                                     D
gardare il suo corpo e scoprirne la forma sentire dei passi... e qualcuno che torna....
----------------|---------------------------------------|-----------------2---------2----|
----------------|---------------------------------------|-3---------------3---------3----|
----------------|-4---------4----2----(2)----4----------|-2---------------2---------2-2-4|
----------------|-4---------4----2----(2)----4----0-----|-0----------0-------------------|
----------------|-2---------2-------------2-------------|--------------------------------|
----------------|---------------------------------------|--------------------------------|

-
Riff. iniziale
-

     A               Mi/A                   D
Fare sesso, succhiarne la polpa e via la vergogna e i sensi di colpa sdraiarsi sulla

   A            Mi/A                       D
sabbia, rotolarsi nel fango carezzarne le gambe, improvvisarsi in un tango annusarne la

   Bm                                 D
pelle,scoprirne l'odore passare dal sesso a fare l'amore... E

A           E        Fa#m         D        A            E
D           E
altro che l'America... altro che la musica... quando sei selvatica... altro che l'America
----------------------|----------------------|-------------------------|2-----2-----------|
----------------------|-------------3--------|----------------------X-X|3-----3-----------|
----------------------|-------------2---2--2-|--------------------1-X-X|2-----2--------2-4|
-------------------2--|------4------0-2----0-|2---2--2--2---2-----2-X-X|0-----0------2----|
7--7--7--7-------2---2|4-4-----4-------------|0---0--0--0---2--2--2----|-------------2----|
5--5--5--5----0-------|2---------------------|--------------0----------|-------------0----|

A  E	Fa#m  E  A  E Fa#m  E  che	l'America! E
-------------------------|----------------4---------|----------------------|-------------|
----5----------5---------|---5---------------5--5---|---5--------5---------|---5----5----|
/6-----4--(4)-----4--2--4/6-----4--4-(4)-----------4/6----4-(4)-----4--2--4/6----4-----4-|
-------------------------|--------------------------|----------------------|-------------|
-------------------------|--------------------------|----------------------|-------------|
-------------------------|--------------------------|----------------------|-------------|

           Re2               D                   E
vivere una notte lunga una vita e avere il suo profumo ancora tra le dita svegliarsi
------------------------------------------------|----------------------------------------|
-----------3------------------------------------|----------------------------------------|
-----------2------------------------------------|----------------------------------------|
-----------0------------------------------------|-2--------------------------------------|
------------------------------------------------|-2--------------------------------------|
------------------------------------------------|-0--------------------------------------|

    Sim11                              Re2             E
affamati e rifarlo per ore passare dal sesso a fare l'amore E
---------------------------------------|-----------------------0------------------|------
---------------------------------------|-3---------------------0------------------|------
----2----------------------------------|-2---------------------1------------------|------
----2----------------------------------|-0--------------2---2--2------------------|------
----0----------------------------------|----------------2---2--2------------------|------
---------------------------------------|----------------0---0--0------------------|------



A           E        Fa#m         D        A            E        D           E
altro che l'America... altro che la musica... quando sei selvatica... altro che l'America
----------------------|----------------------|-------------------------|2-----2-----------|
----------------------|-------------3--------|----------------------X-X|3-----3-----------|
----------------------|-------------2---2--2-|--------------------1-X-X|2-----2--------2-4|
-------------------2--|------4------0-2----0-|2---2--2--2---2-----2-X-X|0-----0------2----|
7--7--7--7-------2---2|4-4-----4-------------|0---0--0--0---2--2--2----|-------------2----|
5--5--5--5----0-------|2---------------------|--------------0----------|-------------0----|

                                          che    l'America!
-------------------------|----------------4---------|----------------------|-------------|
----5----------5---------|---5---------------5--5---|---5--------5---------|---5----5----|
/6-----4--(4)-----4--2--4/6-----4--4-(4)-----------4/6----4-(4)-----4--2--4/6----4-----4-|
-------------------------|--------------------------|----------------------|-------------|
-------------------------|--------------------------|----------------------|-------------|
-------------------------|--------------------------|----------------------|-------------|

D  E	D  E
---0-----2(2)0------|--0---0------0------|--0-----2(2)-0------|--0---0------0------------|
--------------------|--------------------|--------------------|--------------------------|
/6---4-2-------1-2-4/6---4---2(2)---1-2-4/6---4-2--------1-2-4/6---4---2(2)---1-2-4------|
--------------------|--------------------|--------------------|--------------------------|
--------------------|--------------------|--------------------|--------------------------|
--------------------|\-------------------|--------------------|--------------------------|

Bm                            D             E            A5
-----0-----0-----0-----0------|----0-----0-----0-----0--------||
------------------------------|-------------------------------||
-4/6---4/6---4/6---4/6---6\4-2|4/6---4/6---4/6---4/6---6\4--2-||
------------------------------|-----------------------------2-||
------------------------------|-----------------------------0-||
------------------------------|\------------------------------||
     
Добавлено: 24.07.2013
Другие материалы по этой песне:
  • Аккорды и текст

Страница создана 24.07.2013
http://primanota.ru/negrita/sex-chords.htm
Привет, Гость.
Предлагаем пройти революционный курс по гитаре.
Подарок от PrimaNota.Ru, забирай!