PrimaNota.ru - самый крупный в мире бесплатный архив песенных текстов, аккордов, табулатур и нот


Negramaro - Giuliano Poi Sta Male - таба, видео

Регистрация Запомнить меня
Войти через:  Facebook Google Twitter Vk Yandex Mail.ru

Negramaro - Giuliano Poi Sta Male - таба, видео

Печатать
Просмотров: 101
Song:Giuliano poi sta male
Artist:Negramaro
Album:La Finestra
Tabbed by Harry Scarlet

Beautiful song from a great italian band...hope you like my tab..it's very easy
and sounds very good with the song...if you have comments or corrections my mail is
harry-89@hotmail.it

enjoy  u.u

Intro

noise on G+

e------------------------------------------------|
b--8-3--8-10----8-5--8-10----7-3--7-10----8-5-4--|
g------------------------------------------------|
d------------------------------------------------|
a------------------------------------------------|
e------------------------------------------------|
  G+           C+            B-       C+  Eb+


verse

G+        B-


c+        D+


G+        B-


C+        Eb+


pre-chorus

e-2--------0------   x2   e---------|
b-3-let----1-let--        b---------|
g-2-ring---2-ring-        g--8------|
d-o--------2------        d--8------|
a----------0------        a--6------|
e-----------------        e---------|


chorus

e----------------------------------------------------------------------|
b----------------------------------------------------------------------|
g----------------------------------------------------------------------|
d--5---------------------6----------------------7----------------------|
a--5---------------------5----------------------7----------------------|
e--3---------------------4----------------------5----------------------|
nome giuliano poi sta    male e vuoi che cambi   nome mi chiedi quella

   G+                    E7                     A-

(for the strum of the chords listen to the song)


e-------------------------|
b-------------------------|
g--7--5----4--------------|
d--7--5----*----7---------|
a--5--3----2----*---------|
e---------------5---------|
 vita natu-rale in riva al

   D+ c+   D7


pre-verse


mare....al mare....

G+


verse

G+        B-


C+        Eb+


pre-chorus

e-2--------0------   x2   e---------|
b-3-let----1-let--        b---------|
g-2-ring---2-ring-        g--8------|
d-o--------2------        d--8------|
a----------0------        a--6------|
e-----------------        e---------|


chorus

e----------------------------------------------------------------------|
b----------------------------------------------------------------------|
g----------------------------------------------------------------------|
d--5---------------------6----------------------7----------------------|
a--5---------------------5----------------------7----------------------|
e--3---------------------4----------------------5----------------------|
1 nome giuliano poi sta  male e vuoi che cambi  nome mi chiedi quella
2 mare ed io che posso   fare se non ca,biare   nome allora puoi chia-


   G+                    E7                     A-

(for the strum of the chords listen to the song)

e-------------------------------------|
b-------------------------------------|
g--7----5------4----------------------|
d--7----5------*------7-----------5---|
a--5----3------2------*-----------5---|
e---------------------5-----------3---|
1 vita  natu   -rale  in riva al 2 tanto    io non cambio
2-marmi come   più ti piace

   D+   c+     D7

repeat intro

chorus

e----------------------------------------------------------------------|
b----------------------------------------------------------------------|
g----------------------------------------------------------------------|
d--5---------------------6----------------------7----------------------|
a--5---------------------5----------------------7----------------------|
e--3---------------------4----------------------5----------------------|
1 nome giuliano poi sta  male e vuoi che cambi  nome mi chiedi quella
2 mare ed io che posso   fare se non ca,biare   nome allora puoi chia-


   G+                    E7                     A-

(for the strum of the chords listen to the song)

e-------------------------------------|
b-------------------------------------|
g--7----5------4----------------------|
d--7----5------*------7-----------5---|
a--5----3------2------*-----------5---|
e---------------------5-----------3---|
1 vita  natu   -rale  in riva al 2
2-marmi come   più ti piace
3 chiamami come ti piace
4 scegli un nome e datti pace     tanto    io non cambio
   D+   c+     D7
Добавлено: 14.05.2012
Другие материалы по этой песне:
  • Аккорды и текст

Страница создана 14.05.2012
http://primanota.ru/negramaro/giuliano-poi-sta-male-chords.htm
Привет, Гость.
Предлагаем пройти революционный курс по гитаре.
Подарок от PrimaNota.Ru, забирай!