PrimaNota.ru - самый крупный в мире бесплатный архив песенных текстов, аккордов, табулатур и нот


Negative Fx - Might Makes Right - бас-таба, видео

Регистрация Запомнить меня
Войти через:  Facebook Google Twitter Vk Yandex Mail.ru

Negative Fx - Might Makes Right - бас-таба, видео

Печатать
Просмотров: 133
   Guitar intro~

 
    Intro                      Verse

  G|-----------(x4)--|     G|------------(x8)-|
  D|-----------------|     D|-----------------|
  A|---------7-------|     A|---------7-------|
  E|-5-5-5-5----7--7-|     E|-5-5-5-5----7--7-|     
   
   
     Chorus

  G|------------------------------|-----------(x2)--|
  D|------------------------------|-----------------|
  A|------------------------------|---------7-------|
  E|-5----5-3----3-2----2-4-------|-5-5-5-5----7--7-| 


Thanks for enjoying my tab, please contact me if you have notes or improvements.
Cheers

http://www.youtube.com/user/TrojanSkinhead94
Добавлено: 25.07.2013
Вам также может быть интересно:
Другие материалы по этой песне:
  • Аккорды и текст

Страница создана 25.07.2013
http://primanota.ru/negative-fx/might-makes-right-chords.htm
Привет, Гость.
Предлагаем пройти революционный курс по гитаре.
Подарок от PrimaNota.Ru, забирай!