PrimaNota.ru - самый крупный в мире бесплатный архив песенных текстов, аккордов, табулатур и нот


Negative Approach - Why Be Something That Youre Not - бас-таба, видео

Регистрация Запомнить меня
Войти через:  Facebook Google Twitter Vk Yandex Mail.ru

Negative Approach - Why Be Something That Youre Not - бас-таба, видео

Печатать
Просмотров: 137
Уроки эстрадного вокала в Санкт-Петербурге
Song: Why Be Something That You're Not?
Artist: Negative Approach
Album: Negative Approach
Genre: Hardcore Punk
Year: 1982

Hey guys! This is the bass tab of the song and it's fucking 100% correct.
Anyway, enjoy the Negative Approach!

Riff 1:

G:--------------------------
D:--------------------------
A:--------5555-7777---------
E:---7777-----------33-55---

Riff 2:

G:----------------------------
D:----------------------------
A:--------5555-7777-----------
E:---7777-----------33-55-7---

Riff 3:

G:-----------------
D:-----------------
A:------55-77-55---
E:---77------------

Riff 3:

G:-------------------
D:-------------------
A:------55-77-55-----
E:---77----------7---

The order is:
.Riff 1 x3
.Riff 2 x1
.Riff 3 x7
.Riff 4 x1





Tab by: mdc_ivan




Добавлено: 05.06.2016
Другие материалы по этой песне:
  • Аккорды и текст

Страница создана 05.06.2016
http://primanota.ru/negative-approach/why-be-something-that-youre-not-chords.htm
Привет, Гость.
Предлагаем пройти революционный курс по гитаре.
Подарок от PrimaNota.Ru, забирай!