PrimaNota.ru - самый крупный в мире бесплатный архив песенных текстов, аккордов, табулатур и нот


Necros - I Hate My School - таба, видео

Регистрация Запомнить меня
Войти через:  Facebook Google Twitter Vk Yandex Mail.ru

Necros - I Hate My School - таба, видео

Печатать
Просмотров: 150
Уроки эстрадного вокала в Санкт-Петербурге
----------------------------------------------------------------------------
                          I Hate My School-Necros
----------------------------------------------------------------------------
Tabbed by: N.I. Romanov
Email: AltChaosProd@aol.com

Couldn't find tabs for this ANYWHERE so I hope they're right.


Intro

|----------------------------------------------------------------------|
|----------------------------------------------------------------------|
|----------------------------------------------------------------------|
|-9~~~~~~~~------------------------------------------------------------|
|-9~~~~~~~~------------------------------------------------------------|
|-7~~~~~~~~-scrape-----------------------------------------------------|

Verse

|----------------------------------------------------------------------|
|----------------------------------------------------------------------|
|---------------9-9-9-7-7-7--------------------------------------------|
|-9-9-9-9-9-9-9-9-9-9-7-7-7--------------------------------------------|
|-9-9-9-9-9-9-9-7-7-7-5-5-5--------------------------------------------|
|-7-7-7-7-7-7-7--------------------------------------------------------|


Chorus

|----------------------------------------------------------------------|
|----------------------------------------------------------------------|
|----------------------------------------------------------------------|
|-----------------5-5-5-5-7-7-7-7--------------------------------------|
|-5-5-5-5-7-7-7-7-3-3-3-3-5-5-5-5--------------------------------------|
|-3-3-3-3-5-5-5-5------------------------------------------------------|

End



|----------------------------------------------------------------------|
|----------------------------------------------------------------------|
|----------------------------------------------------------------------|
|-5--------------------------------------------------------------------|
|-5-let ring-----------------------------------------------------------|
|-7--------------------------------------------------------------------|
Добавлено: 09.03.2012
Другие материалы по этой песне:
  • Аккорды и текст

Страница создана 09.03.2012
http://primanota.ru/necros/i-hate-my-school-chords.htm
Привет, Гость.
Предлагаем пройти революционный курс по гитаре.
Подарок от PrimaNota.Ru, забирай!