PrimaNota.ru - самый крупный в мире бесплатный архив песенных текстов, аккордов, табулатур и нот


Necrophobic - Into Armageddon - текст песни, таба, видео

Регистрация Запомнить меня
Войти через:  Facebook Google Twitter Vk Yandex Mail.ru

Necrophobic - Into Armageddon - текст песни, таба, видео

Печатать
Просмотров: 141
-------------------------------------------------------------------------------
NECROPHOBIC-INTO ARMAGEDDON  from the Third Antichrist 1999 BLACK MARK
-------------------------------------------------------------------------------
Tabbed by:NihilView

E-mail:

Tuning:Standard D  DGCFAD


|--------3--------3---------2-------2---------1---------1--------------------------| PART A
|--------4--------3---------3-------2---------2---------1--------------------------|
|--------5--------3---------4-------2---------3---------1------2-------------------|
|--------5--------5---------4-------4---------3---------3------2-------------------|
|---3333-3--------5----2222-2-------4----1111-1---------3------0---33--22--3-55----|
|------------3333-3------------2222-2--------------1111-1--------------------------|


|---------------------------------------------------------------------------| PART B
|---------------------------------------------------------------------------|
|---------------------------------------------------------------------------|
|---2---------12-12-12----11-11-11-----8-8-8-----5-5-5-----2----------------|
|---2---------10-10-10-sl-9--9--9---sl-6-6-6-sl--3-3-3-----2----------------|
|---0------------------------------------------------------0----------------|


!----------------------------------------------------------------------------! PART C
!----------------------------------------------------------------------------! at the end of part C play
!----4---4---4---4-------Repeat ---------------------------------------------!  finish with part B!
!----2---2---2---2-----------------------------------------------------------!
!----2---2---2---2-----------------------------------------------------------!
!----0---0---0---0-----------------------------------------------------------!



|------------------------------------------------------------------------------------|  PART D
|------------------------------------------------------------------------------------|
|------------------------------------------------------------------------------------|
|-3-3--4---3-3--4---5-5-5-5-----8-8-8--------3-3-4-3-3--4--3-3-3----6-6-3-3---2------|
|-1-1--1---1-1--1---3-3-3-3-----6-6-6--9-9---1-1-1-1-1--1--3-3-3----6-6-3-3---2------|
|--------------------------------------7-7-----------------1-1-1-sl-4-4-1-1---0------|



|-----------------------------------------------------------------------------------------| PART E
|-----------------------------------------------------------------------------------------| 
|--9--------------------------------------------------------------------------------------| Bridge!
|--9---10-----------------9------------7-----10vvv-----------9-------------7-v------------|
|--7---8---2x-------7-----------10--------------------7v-----------10------------10v---9v-|
|--0---8----------------------------------------------------------------------------------|


|---------------------------------------------------------------------------|   PART F
|---------------------------------------------------------------------------|
|---------------------------------------------------------------------------| play fast tremolo picking
|--9--7--9--10-9-7--9--7--6-------------------------------------------------|
|--7--7--7--7--7-7--7--9--9-------------------------------------------------|
|---------------------------------------------------------------------------|


|---------------------------------------------------------------------------|
|---------------------------------------------------------------------------| PART G PRE-SOLO
|---------------------------------------------------------------------------|
|---------------------------------------------------------------------------|
|---0------2-3vv----0-----2-3--2p-0--2------------2---0------0--------------|
|------0---------------0-----------------3---------------3------0-----------|


                               
|------------------------------------8-7------------------------------------------------------|
|--8p7------7-----10p8-7----7h8-----------10-8-7----------------------------------------------| SOLO
|------98h9---------------9-----------------------9-8vv----5-4--------------------89--11-12---|
|--------------------------------------------------------------------------7-9-10-------------|
|-------------------------------------------------------------------7-9-10--------------------|
|---------------------------------------------------------------------------------------------|

|----------------------------12-14-15--10-12-14------------8-10-12-8--7----------------|
|------------------------------------------------13-12------------------108p7h8--------|
|-9-1112-11-9---8vv--------------------------------------------------------------------|
|-------------------10-9---------------------------------------------------------------|
|--------------------------------------------------------------------------------------|
|--------------------------------------------------------------------------------------|


!----------------------------------------------------12--11vv-10vvv--------------------------!
!-------------------------------------------13-12----------------------------------------!
!-7h9p7--9h11p9---11h12p11---12h14p-12---------------------------------------------------!
!----------------------------------------------------------------------------------------!
!----------------------------------------------------------------------------------------!
!----------------------------------------------------------------------------------------!


AFTER SOLO PLAY AGAIN INTRO PART A !!



!-----7---7-----6---6------5---5-----------------------------------------------------------! 
!-----8---7-----7---6------6---5-----------------------------------------------------------! BACK CHORDS
!-----9---7-----8---6------7---5------6----------------------------------------------------! FOR TAPPING
!-----9---9-----8---8------7---7------6----------------------------------------------------!  PART
!-----7---9-----6---8------5---7------4----777--66---77--9---------------------------------!
!---------7---------6----------5-----------------------------------------------------------!



     T   P       T      P       T       P       T      P          T      P         T    P
!--------------------------------------------------------------------------------------------!
!---10--6--3--------------------9----5----2-----------------------8----4----1----------------! TAPPING
!----------------9----5---2---------------------8----4-----1-----------------------7----3--0-! PART
!--------------------------------------------------------------------------------------------! play through
!--------------------------------------------------------------------------------------------! for timing
!--------------------------------------------------------------------------------------------!



 AFTER TAPPING PLAY PART B












!vvv -vibrato
!  T-tapping
| /   slide up
| \   slide down
| h   hammer-on
| p   pull-off
| +   harmonic
| x   Mute note
| b   Bend
| pb  Pre-bend
| br  Bend release
| pbr Pre-bend release


************************************
Добавлено: 24.04.2015
Другие материалы по этой песне:
  • Аккорды и текст

Страница создана 29.02.2012
http://primanota.ru/necrophobic/into-armageddon-chords.htm
Привет, Гость.
Предлагаем пройти революционный курс по гитаре.
Подарок от PrimaNota.Ru, забирай!