PrimaNota.ru - самый крупный в мире бесплатный архив песенных текстов, аккордов, табулатур и нот


Necrophobic - Frozen Empire - текст песни, таба, видео

Регистрация Запомнить меня
Войти через:  Facebook Google Twitter Vk Yandex Mail.ru

Necrophobic - Frozen Empire - текст песни, таба, видео

Печатать
Просмотров: 186
---------------------------------------------------------------------------------
  NECROPHOBIC - FROZEN EMPIRE     from the Third Antichrist 1999 BLACK MARK
---------------------------------------------------------------------------------
Tabbed by:NihilView

E-mail:


Tuning:DGCFAD  D-Standard

                 INTRO:
|---------------------------------------------------------------------------------|
|---------------------------------------------------------------------------------|
|---------------------------------------------------------------------------------|  GUIT.1
|---2------------6-----------2----------5--5-------2-------6--------2-------5--3--|
|---2------------6-----------2----------3--5-------2-------6--------2-------3--3--|
|---0------------4-----------0----------3--3-------0-------4--------0-------3--1--|

|-----------------------------------------------------------------------vvv-|  
|----------1112-11------------------------1112--11-------------------12-----!  GUIT.2
|---9---------------12-11--9----------9-------------12-11--9----------------|
|---------------------------------------------------------------------------|
|---------------------------------------------------------------------------|
|---------------------------------------------------------------------------|



|--------------------------------------------------------------------------------------| VERSE
|--------------------------------------------------------------------------------------|
|--------------------------------------------------------------------------------------| GUIT.1
|--5555-4444---------------5555-4444--------------5555-4444------------5555-4444-------|
|--------------776-7------------------7--3h6-----------------77-6-7--------------3-2h3-|
|--------------------------------------------------------------------------------------|

|--------------------------------------------------------------------------------------|
|--------------------------------------------------------------------------------------|
|--------------------------------------------------------------------------------------| GUIT.2
|--5-5-5-5-5-5----5-5-5-5-----2-22-2---------------------------------------------------|
|--7-7-7-7-7-7----3-3-3-3-----0-00-0---------------------------------------------------|
|--------------------------------------------------------------------------------------|




|---------------------------------------------------------------------------!
|---------------------------------------------------------------------------| BOTH GUITARS 2 X
|---------------------------------------------------------------------------|
|----5---4-----5-------8----------------------------------------------------|
|----3---2-----3-------6----------------------------------------------------|
|----3---2-----3-------6----------------------------------------------------|



|---------------------------------------------------------------------------|
|---------------------------------------------------------------------------| VERSE + FILL
|---------------------------------------------------------------------------|
|-------------------------------------------444-22-44--5--------------------|
|---------------------------------------------------------------------------|
|---------------------------------------------------------------------------|



|---------------------------------------------------------------------------| INTERLUDE
|---------------------------------------------------------------------------|
|-------44-55-4-------44-55-4------------77-88-7---------77-88-7------------| GUIT.1
|---22-------------3----------------55--------------55----------------------|
|---------------------------------------------------------------------------|
|---------------------------------------------------------------------------|

|---------------------------------------------------------------------------|
|---8------------9-----------------11---------------------------------------|
|---9------------10----------------12---------------------------------------| GUIT.2
|---9------------10----------------12---------------------------------------|
|---7------------8-----------------10---------------------------------------|
|---------------------------------------------------------------------------|





I-----------------------------------------------------------------------------I
I-----------------------------------------------------------------------------I CHORUS!!
I-------------4----3---2--3------------------5--4--5--7-----------------------I
I---2-----5---4----3---2--3----------2---5---5--4--5--7-----------------------I
I---2-----5---2----1---0--1----------2---5---3--2--3--5-----------------------I
I---0-----3--------------------------0---3------------------------------------I


                       BRIDGE!!
I-----------------------------------------------------------------------------------------------------I
I-----------------------------------------------------------------------------------------------------I
I---------------------------------5-----------------------------------------------------8-------------I
I-----------------------------------------------------------------------------------------------------I
I--------7--------7h8-------78-------87-8-----------------10-------10h11--------10-11--------11-1011--I
I--00-0-----0-00-------000--------------------------888-------888---------888-------------------------I


              SOLO BACK.
I-----------------------------------------------------------------------------------------------------I
I------------------------0p1--0p3-0p1---0p1-----------------------------------------------------------I
I---4-----5----------------------------------2--------------------------------------------------------I
I---2-----5-------------------------------------------------------------------------------------------I
I---2-----3-------------------------------------------------------------------------------------------I
I---0-----3-------------------------------------------------------------------------------------------I



                           SOLO 1st.

I-----------------------------------------------------------------------------------------------I
I--12b-12vvv---1312-11-----------------------------131211---------------------------------------I
I-----------------------1211-9----------------------------1211-9---8---11-----9vvvv-------------I
I-------------------------------109-7-----------------------------------------------------------I
I---------------------------------------109-7---------------------------------------------------I
I-----------------------------------------------------------------------------------------------I

I------------------------------------------------------------------------------------------------I
I----------------------------------------17-16---------------------------------------------------I
I-8-9-11---89-11-9--89p8-12-----sl17-16--------------12-11vv---12-11--9--------------------------I
I------------------------------------------------------------------------------------------------I
I------------------------------------------------------------------------------------------------I
I------------------------------------------------------------------------------------------------I

I------------1719-20----1917-----------------------1719--20--1917--------------1917---------------I
I---1719-20------------------2019-17-----1719--20------------------20-19-17---------2019-17-15v---I
I-------------------------------------------------------------------------------------------------I
I-------------------------------------------------------------------------------------------------I
I-------------------------------------------------------------------------------------------------I
I-------------------------------------------------------------------------------------------------I

I------------------------19p-15--------17p-14---------------14br-----------------------------------I
I-----17b-15-17vvv--------------17--------------15---17br-----------17vvv--------------------------I
I--------------------------------------------------------------------------------------------------I
I--------------------------------------------------------------------------------------------------I
I--------------------------------------------------------------------------------------------------I
I--------------------------------------------------------------------------------------------------I






************************************


| /   slide up
| \   slide down
| h   hammer-on
| p   pull-off
vvv   vibrato
| +   harmonic
| x   Mute note
| b   Bend
| pb  Pre-bend
| br  Bend release
| pbr Pre-bend release
| brb Bend release bend

************************************
Добавлено: 24.04.2015
Другие материалы по этой песне:
  • Аккорды и текст

Страница создана 13.04.2012
http://primanota.ru/necrophobic/frozen-empire-chords.htm
Привет, Гость.
Предлагаем пройти революционный курс по гитаре.
Подарок от PrimaNota.Ru, забирай!