PrimaNota.ru - самый крупный в мире бесплатный архив песенных текстов, аккордов, табулатур и нот


Necrophobic - Christian Slaughter - текст песни, таба, видео

Регистрация Запомнить меня
Войти через:  Facebook Google Twitter Vk Yandex Mail.ru

Necrophobic - Christian Slaughter - текст песни, таба, видео

Печатать
Просмотров: 51
-------------------------------------------------------------------------------
NECROPHOBIC-Christian Slaughter  from Darkside BLACK MARK 1997
-------------------------------------------------------------------------------
Tabbed by:NihilView

E-mail:

Tuning:D standard  DGCFAd


d|---------------------------------------------------------------------------|
A|---------------------------------------------------------------------------| INTRO fast tempo
F|----------------------------------------------9-8------9------8--5---------|
C|-----------------------------------------777-------77-----77---------------|
G|--------7-6-------7-------6-3----------------------------------------------|
D|--555--------555-----55----------------------------------------------------|



  Slower tempo:

|--0-0-0-0-0---1-1---0-0-----4-4-4-4-4----1-1 1----0-0------------------------|
|--0-0-0-0-0---1-1---0-0-----4-4-4-4-4----1-1-1----0-0------------------------| PART 1a
|--0-0-0-0-0---1-1---0-0-----4-4-4-4-4----1-1-1----0-0------------------------|
|--2-2-2-2-2---3-3---2-2-----6-6-4-6-6----3-3-3----2-2------------------------|
|--2-2-2-2-2---3-3---2-2-----6-6-6-6-6----3-3-3----2-2------------------------|
|-----------------------------------------------------------------------------!



!-0-0-0-0-0--1-1----0--0-------------------------------------------------------!
|-0-0-0-0-0--1-1----0--0-------------------------------------------------------| PART 1b
|-0-0-0-0-0--1-1----0--0-------------------------------------------------------|
|-2-2-2-2-2--3-3----2--2-------------------------------------------------------|
|-2-2-2-2-2--3-3----2--2------------------0-0-0-222-333-00---111-333-444-11----|
|------------------------------------------------------------------------------|



       4x      4x     6x           4x
|---2-------4------3-----------------------------------------------------------|
|---2-------5------3-----------------------------------------------------------| PART 1c
|---2-------6------5------------------5----------------------------------------|
|---4-------6------5------------4-----5----------------------------------------|
|---4-------4------3------------4-----3---6-6----5----4------------------------|
|-------------------------------2---------4-4-sl.3-sl.2------------------------|



      
|------------------------------------------------------------------------------|
|------------------------------------------------------------------------------| VERSE:mid-tempo
|-------------------------------22-44-55---------------------------------------|
|---------------------------22-------------------------------------------------|
|----------------------------------------------------------------66-----5555---|
|--0-00-00-00--0-00-00-00------------------------3--33-33-33-3-------3---------|



 ALL CHORDS PLAY TREMOLO PICK.
|---------------------------------------------------------------------------|
|---0--------3-------3------0----2----1-------------------------------------| FASTER BRIDGE
|---0--------3-------4------0----2----2-------------------------------------|
|---2--------5-------4------1----4----2-------------------------------------|
|---2--------5--------------1----4----0-------------------------------------|
|---------------------------------------------------------------------------|
  .....................................trem.picking



REPEAT VERSE RIFF!



|---------------------------------------------------------------------------|
|---------------------------------------------------------------------------|
|---------------------------------------------------------------------------| CHORUS!
|---7-7-7-7---9-10--8-8-8-8--8-8-8--7-7-7-----------------------------------|
|---5-5-5-5---7-7---6-6-6-6--8-8-8--7-7-7-----------------------------------|
|---------------------------------------------------------------------------|



   SOLO: BACK PLAY INTRO

   END OF SONG FADE OUT PLAY PART 1a+1b








************************************

tr.   tremolo pick.
!sl.  slide
| h   hammer-on
| p   pull-off
| ~   vibrato
| +   harmonic
| x   Mute note
| b   Bend
| pb  Pre-bend
| br  Bend release
| pbr Pre-bend release
| brb Bend release bend

************************************
Добавлено: 27.12.2015
Другие материалы по этой песне:
  • Аккорды и текст

Страница создана 08.04.2012
http://primanota.ru/necrophobic/christian-slaughter-chords.htm
Привет, Гость.
Предлагаем пройти революционный курс по гитаре.
Подарок от PrimaNota.Ru, забирай!