PrimaNota.ru - самый крупный в мире бесплатный архив песенных текстов, аккордов, табулатур и нот


Necrophagist - To Breathe In A Casket - текст песни, таба, видео

Регистрация Запомнить меня
Войти через:  Facebook Google Twitter Vk Yandex Mail.ru

Necrophagist - To Breathe In A Casket - текст песни, таба, видео

Печатать
Просмотров: 101
Уроки эстрадного вокала в Санкт-Петербурге
Tuning D G C F A D

Gtr I  - Right Speaker
Gtr II  - Left Speaker

 - Natural Harmonic
[n] - Artificial Harmonic

 Q.=140

6/8
  Gtr I
  E E E E E E   E E E E E E   E E E E E E   E E E E E E   E E E E E E
|-------------|-------------|-------------|-----------9-|-------------|
|-------------|-------------|-------------|---------8---|-------------|
|-------------|-------------|-------------|-------6-----|-------------|
|-------3-----|-------2-----|-------3-----|-------------|-2-----3-----|
|---1-----1---|---1-----1---|---1-----1---|---1---------|---1-----1---|
|-0---0-----3-|-0---0-----1-|-0---0-----3-|-0---0-------|-----0-----3-|
|
| Gtr II
| E E E E E E   E E E E E E   E E E E E E   E E E E E E   E E E E E E
|-------------|-------------|-------------|-------------|-------------|
|-------------|-------------|-------------|-----------5-|-------------|
|-------------|-------------|-------------|-------------|-------------|
|-------3-----|-------2-----|-------3-----|-------2h5---|-------3-----|
|---1-----1---|---1-----1---|---1-----1---|---1---------|---1-----1---|
|-0---0-----3-|-0---0-----1-|-0---0-----3-|-0---0-------|-0---0-----3-|


  E E E E E E   E E E E E E   E E E E E E   Q.   Q  E   H.
|-------------|-------------|-------------|-----------|---------------|
|-------------|---6---6---7-|---6---------|-----------|---------------|
|-------------|-------------|-------------|---------3-|---------------|
|-2-----5---6-|-----3---3---|-3---3-------|-----------|---------------|
|---1---------|-------------|-------4-4-4-|-4----1----|---------------|
|-----1---1---|-1-----------|-------0-0-0-|-0----0----|---------------|
|
| E E E E E E   E E E E E E   E E E E E E   Q.   Q  E   E  E E E E E
|-------------|-------------|-------------|-----------|---------------|
|-------------|-------------|-------------|-----------|---------------|
|-------------|-------------|-------------|-----------|---------------|
|-------2-----|---3---3---4-|---3---------|-----------|------2-----4--|
|---1-----1---|-------------|-------4-4-4-|-4----1----|----1-----2----|
|-0---1-----1-|-1---1---1---|-1---1-0-0-0-|-0----0--0-|-0------2------|


  E  E E E E E    E Q   E E E   E E E E E E   E E E E E E   E E E E E E
|--------------|--------------|-------------|-------------|--------------|
|--------------|--------------|-------------|-------------|--------------|
|------------9-|-10-----------|-------------|-------------|--------------|
|--------------|--------------|---------3---|-3---4---3---|-3---4--------|
|-7----8-7-8---|--------3-0-1-|-3-----------|-------------|-------3---3--|
|----6---------|--------------|---4-3-1---1-|---1---1---1-|---1-----1----|
|
| Q.     E E E    E E E E E E   E E E E E E   E E E E E E   E E E E E E
|--------------|--------------|-------------|-------------|--------------|
|--------------|--------------|---------6---|-6---7---6---|-6---7--------|
|--------------|--------------|-------------|-------------|--------------|
|--------------|--------------|-----------3-|---3---3---3-|---3----------|
|------------3-|--4-----3-0-1-|-3-----------|-------------|-------3---3--|
|--------0-1---|----0-1-------|---4-3-1-----|-------------|---------1----|


  E E E E E E   E E E E E E   E E E E E E   E E E E E E   E E E E E E
|-------------|-------------|-------------|-------------|--------------|
|-------------|-------------|-------------|-------------|--------------|
|-------------|-------------|---------3---|-------------|--------------|
|-------------|-------------|-------------|-------2-----|-3-----2------|
|-4-----3-----|-3---3-2-----|-------------|---------1---|---1-----1----|
|---0-1---0-1-|---0-1-0-0-0-|-0-2-1-2---2-|-1-0-1-----0-|-----3-----1--|
|
| E E E E E E   E E E E E E   E E E E E E   E E E E E E   E E E E E E
|-------------|-------------|-------------|-------------|--------------|
|-------------|-------------|-------------|-------------|--------------|
|-------------|-------------|-------------|-------------|--------------|
|-------------|-------------|---------4---|-------------|-3------------|
|-4-----3-----|-3---3-2-----|-------------|---------1---|---1-----1----|
|---0-1---0-1-|---0-1-0-0-0-|-0-2-1-2---2-|-1-0-1-0---0-|-----3-0---1--|


                                          3/8    6/8
  E E E E E E   E E E E E E   E E E Q.     Q  E   Q.     E  E E
|-------------|-------------|------------|------|---------------|
|---------6---|-6---7---6---|------------|------|---------------|
|-------------|-------------|------------|----3-|---------------|
|-5---6-3---3-|---3---3---3-|------------|----2-|-----------2-3-|
|-------------|-------------|-4-4-4-4----|-1--1-|--------1------|
|---1---------|-------------|-0-0-0-0----|-0----|---------------|
|
| E E E E E E   E E E E E E   E E E Q.     Q  E   E  E E Q.
|-------------|-------------|------------|------|---------------|
|-------------|-------------|------------|------|---------------|
|-------------|-------------|------------|------|---------------|
|-2-------3---|-3---4---4---|------------|----2-|------2--------|
|---1---------|-------------|-4-4-4-4----|-1----|----1----------|
|-----1-1---1-|---1---1---1-|-0-0-0-0----|-0----|-0-------------|


      E  E E   E  E E     E  E E   E  E E
||--------------------|-------------------|
||o-------------------|-------------------|
||--------------------|-------------------|
||--------------------|-------------------|
||o-[10]-----[10]-----|-[10]-----[10]-----|
||-------0-0------0-0-|------0-0------0-0-|
|
|     E  E E   E  E E     E  E E   E  E E
||--------------------|-------------------|
||o-------------------|-------------------|
||--------------------|-------------------|
||--------------------|-------------------|
||o-[10]-----[10]-----|-[10]-----[10]-----|
||-------0-0------0-0-|------0-0------0-0-|


  E E E   E  E E   E E E E E E    Q   E   E  E E
|----------------|-------------|-----------------|
|----------------|-------------|-----------------|
|---6------------|-------------|-----------------|
|-5--------------|-------------|-----------------|
|-------[10]-----|-------------|-[7]----[10]-----|
|-----0------0-0-|-0h1h2h5p2p1-|------0------0-0-|
|
| E E E   E  E E   E E E E E E    Q   E   E  E E
|----------------|-------------|-----------------|
|----------------|-------------|-----------------|
|----------------|-------------|-----------------|
|---8------------|-------------|-----------------|
|-7-----[10]-----|-------------|--------[10]-----|
|-----0------0-0-|-0h1h2h5p2p1-|--0---0------0-0-|


    E  E E   E  E E   Q  E   E  E E   E E E E E E
|-------------------|---------------|--------------||
|-------------------|---------------|-------------o||
|-------------------|---------------|--------------||
|-------------------|---------------|--------------||
|-[10]-----[10]-----|-4--4-[10]---0h|=1p0h4p1p0h1-o||
|------0-0------0-0-|-----------0---|--------------||
|
|   E  E E   E  E E   Q  E   E  E E   E E E E E E
|-------------------|---------------|--------------||
|-------------------|---------------|-------------o||
|-------------------|---------------|--------------||
|-------------------|---------------|--------------||
|-[10]-----[10]-----|-1--1-[10]-----|-------------o||
|------0-0------0-0-|-----------0-0h|=1p0h5p2p1h2--||


   Q.     E  E E     E  E E   E  E E
|----------------|-------------------|
|----------------|-------------------|
|----------------|-------------------|
|----------------|-------------------|
|--3----[10]-----|-[10]-----[10]-----|
|--1---------0-0-|------0-0------0-5-|
|
|  Q.     E  E E     E  E E   E  E E
|----------------|-------------------|
|----------------|-------------------|
|----------------|-------------------|
|-10-------------|-------------------|
|--8----[10]-----|-[10]-----[10]-----|
|------------0-0-|------0-0------0-5-|


  Q.     E  E E     E  E E E E E   Q.     E  E E
|---------------|----------------|----------------|
|---------------|----------------|----------------|
|---------------|----------------|----------------|
|---------------|----------------|----------------|
|-4----[10]-----|-[10]-----------|-3----[10]------|
|-2---------0-0-|------0-5-2-1-2-|-1---------0-0--|
|
| Q.     E  E E     E  E E E E E   Q.     E  E E
|---------------|----------------|----------------|
|---------------|----------------|----------------|
|---------------|----------------|----------------|
|---------------|----------------|----------------|
|-4----[10]-----|-[10]-----------|-3----[10]------|
|-2---------0-0-|------0-5-2-1-2-|-1---------0-0--|


    E  E E   E  E E   Q.   E E E   E E E Q  E
|-------------------|------------|------------|
|-------------------|------------|------------|
|-------------------|------------|-------1----|
|-------------------|------------|-----2------|
|-[10]-----[10]---7-|-4------1-0-|-1-4--------|
|------0-0------0---|------0-----|------------|
|
|   E  E E   E  E E   Q.   E E E   E E E Q  E
|-------------------|------------|------------|
|-------------------|------------|------------|
|-------------------|------------|------------|
|-------------------|------------|-------3----|
|-[10]-----[10]---3-|-1----------|-----4------|
|------0-0------0---|------0-1-0-|-1-4--------|


      E  E E   E  E E     E  E E   E  E E   E E E   E  E E   E E E E E E
||--------------------|-------------------|----------------|-------------|
||o-------------------|-------------------|----------------|-------------|
||--------------------|-------------------|---6------------|-------------|
||--------------------|-------------------|-5--------------|-------------|
||o-[10]-----[10]-----|-[10]-----[10]-----|-------[10]-----|-------------|
||-------0-0------0-0-|------0-0------0-0-|-----0------0-0-|-0h1h2h5p2p1-|
|
|     E  E E   E  E E     E  E E   E  E E   E E E   E  E E   E E E E E E
||--------------------|-------------------|----------------|-------------|
||o-------------------|-------------------|----------------|-------------|
||--------------------|-------------------|----------------|-------------|
||--------------------|-------------------|---8------------|-------------|
||o-[10]-----[10]-----|-[10]-----[10]-----|-7-----[10]-----|-------------|
||-------0-0------0-0-|------0-0------0-0-|-----0------0-0-|-0h1h2h5p2p1-|


   Q   E   E  E E     E  E E   E  E E   Q  E   E  E E   E E E E E E
|-----------------|-------------------|---------------|---------------||
|-----------------|-------------------|---------------|--------------o||
|-----------------|-------------------|---------------|---------------||
|-----------------|-------------------|---------------|---------------||
|-[7]----[10]-----|-[10]-----[10]-----|-4--4-[10]---0h|=1p0h4p1p0h1--o||
|------0------0-0-|------0-0------0-0-|-----------0---|---------------||
|
|  Q   E   E  E E     E  E E   E  E E   Q  E   E  E E   E E E E E E
|-----------------|-------------------|---------------|---------------||
|-----------------|-------------------|---------------|--------------o||
|-----------------|-------------------|---------------|---------------||
|-----------------|-------------------|---------------|---------------||
|--------[10]-----|-[10]-----[10]-----|-1--1-[10]-----|--------------o||
|--0---0------0-0-|------0-0------0-0-|-----------0-0h|=1p0h5p2p1h2---||


   Q.     E  E E     E  E E   E  E E
|----------------|-------------------|
|----------------|-------------------|
|----------------|-------------------|
|----------------|-------------------|
|--3----[10]-----|-[10]-----[10]-----|
|--1---------0-0-|------0-0------0-5-|
|
|  Q.     E  E E     E  E E   E  E E
|----------------|-------------------|
|----------------|-------------------|
|----------------|-------------------|
|-10-------------|-------------------|
|--8----[10]-----|-[10]-----[10]-----|
|------------0-0-|------0-0------0-5-|


  Q.     E  E E     E  E E E E E   Q.     E  E E
|---------------|----------------|----------------|
|---------------|----------------|----------------|
|---------------|----------------|----------------|
|---------------|----------------|----------------|
|-4----[10]-----|-[10]-----------|-3----[10]------|
|-2---------0-0-|------0-5-2-1-2-|-1---------0-0--|
|
| Q.     E  E E     E  E E E E E   Q.     E  E E
|---------------|----------------|----------------|
|---------------|----------------|----------------|
|---------------|----------------|----------------|
|---------------|----------------|----------------|
|-4----[10]-----|-[10]-----------|-3----[10]------|
|-2---------0-0-|------0-5-2-1-2-|-1---------0-0--|


                                                             3/8
    E  E E   E  E E   Q.   E E E   E E E E E E   E E E Q.     Q.
|-------------------|------------|-------------|------------|------|
|-------------------|------------|-------------|------------|------|
|-------------------|------------|-------1-----|------------|------|
|-------------------|------------|-----2-------|-2-----4----|------|
|-[10]-----[10]---7-|-4------1-0-|-1-4-----1---|---0--------|------|
|------0-0------0---|------0-----|-----------0-|-----0------|------|
|
|   E  E E   E  E E   Q.   E E E   E E E E E E   E E E Q.     Q.
|-------------------|------------|-------------|------------|------|
|-------------------|------------|-------------|------------|------|
|-------------------|------------|-------------|------------|------|
|-------------------|------------|-------3-----|-2-----4----|------|
|-[10]-----[10]---3-|-1----------|-----4---1---|---0--------|------|
|------0-0------0---|------0-1-0-|-1-4-------0-|-----0------|------|


 6/8
  E E E E E E   E E E E E E   E E E E E E
|-------------|-------------|-------------|
|-------------|-------------|-6-----5-----|
|-------------|-------------|-----4-------|
|-3-----2-----|-4-----3-----|---3-----2-3-|
|-----1---0---|-----1-----1-|-------------|
|---0-------0-|---0-----0---|-------------|
|
| E E E E E E   E E E E E E   E E E E E E
|-------------|-------------|-------------|
|-------------|-------------|-------------|
|-------------|-------------|-------------|
|-3-----2-----|-4-----3-----|-3-----2-----|
|-----1---0---|-----1-----1-|-----1-------|
|---0-------0-|---0-----0---|---1-----0-1-|


    E  E E   E  E E     E  E E   E  E E
|-------------------|-------------------|
|-------------------|-------------------|
|-------------------|-------------------|
|-------------------|---------------2-3-|
|-[10]-----[10]-----|-[10]-----[10]-----|
|------0-0------0-0-|------0-0----------|
|
|   E  E E   E  E E     E  E E   E  E E
|-------------------|-------------------|
|-------------------|-------------------|
|-------------------|-------------------|
|-------------------|-------------------|
|-[10]-----[10]-----|-[10]-----[10]-----|
|------0-0------0-0-|------0-0------0-1-|


 6/8
  E E E E E E   E E E   E  E E     E  E E E E E   Q.   Q.     H.
|-------------|-2--------------|----------------|-----------|-------|
|-6-----5-----|----------------|----------6-----|-5---------|-5-----|
|-------------|----------------|--------------4-|-----------|-3-----|
|---2-3---2-3-|---2-3----------|------------3---|-----------|-2-----|
|-------------|-------[10]-----|-[10]-----------|-----------|-------|
|-------------|------------0-0-|------0-0-------|-----------|-------|
|
| E E E E E E   E E E   E  E E     E  E E E E E   Q.   Q.     H.
|-------------|----------------|----------------|-----------|-------|
|-------------|----------------|----------------|-----------|-------|
|-------------|----------------|----------------|-----------|-3-----|
|-3-----2-----|-4--------------|----------3-----|-2---------|-2-----|
|-----1-----0-|-----1-[10]-----|-[10]---------1-|-----------|-1-----|
|---0-----0---|---0--------0-0-|------0-0---1---|-----------|-------|


  +Q   E E E E   Q.   Q.     E E E E E E   E E E E E E   E E E E E E
|--------------|-----------|-------------|-------------|--------------|
|-(5)----------|-----------|-------------|-------------|--------------|
|-(3)----------|-----------|-------------|-------------|--------------|
|-(2)----------|-----------|-3-----2-----|-4-----3-----|-3-----2-2-3--|
|--------------|-1---------|-----1---0---|-----1-----1-|---1----------|
|------0-1-0-3-|-----------|---0-------0-|---0-----0---|-----1--------|
|
| +Q   E E E E   Q.   Q.     E E E E E E   E E E E E E   E E E E E E
|--------------|-----------|-------------|-------------|--------------|
|--------------|-----------|-------------|-------------|--------------|
|-(3)----------|-----------|-------------|-------------|--------------|
|-(2)----------|-----------|-3-----2-----|-4-----3-----|-3-----2------|
|-(1)----------|-----------|-----1---0---|-----1-----1-|-----1--------|
|------0-1-0-1-|-2---------|---0-------0-|---0-----0---|---1-----0-1--|


    E  E E   E  E E     E  E E   E  E E   H.
|-------------------|-------------------|---------|
|-------------------|-------------------|---------|
|-------------------|-------------------|-9-------|
|-------------------|-------------------|---------|
|-[10]-----[10]-----|-[10]-----[10]-----|-7-------|
|------0-0------0-0-|------0-0------0-1-|---------|
|
|   E  E E   E  E E     E  E E   E  E E   H.
|-------------------|-------------------|---------|
|-------------------|-------------------|---------|
|-------------------|-------------------|-9-------|
|-------------------|-------------------|---------|
|-[10]-----[10]-----|-[10]-----[10]-----|-7-------|
|------0-0------0-0-|------0-0------0-1-|---------|


   Q.   Q.      E  E E  E  E E     Q   E E E E
|------------|-----------------|---------------|
|------------|-----------------|---------------|
|-10----6----|-----------------|---------------|
|------------|-----------------|-[10]----------|
|--8----4----|-<7>-----<7>-----|---------------|
|------------|-----0-0-----0-0-|-------3-1-0-1-|
|
|  Q.   Q.      E  E E  E  E E     Q   E E E E
|------------|-----------------|---------------|
|------------|-----------------|---------------|
|-10----6----|-----------------|---------------|
|------------|-----------------|-[10]----------|
|--8----4----|-<7>-----<7>-----|---------------|
|------------|-----0-0-----0-0-|-------3-1-0-1-|


  H.        Q.   Q.     E E E E E E   E E E   E  E E     E  E E   E  E E
|---------|-----------|-------------|-2--------------|--------------------|
|---------|-----------|-6-----5-----|----------------|--------------------|
|---------|-----------|-------------|----------------|--------------------|
|---------|-----------|---2-3---2-3-|---2-3----------|--------------------|
|-2-------|-3----4----|-------------|-------[10]-----|-[10]-----[10]------|
|-0-------|-1----0----|-------------|------------0-0-|------0-0------0-0--|
|
| H.        Q.   Q.     E E E E E E   E E E   E  E E     E  E E   E  E E
|---------|-----------|-------------|----------------|--------------------|
|---------|-----------|-------------|----------------|--------------------|
|---------|-----------|-------------|----------------|--------------------|
|---------|-----------|-3-----2-----|-4--------------|--------------------|
|-2-------|-3----4----|-----1-----0-|-----1-[10]-----|-[10]-----[10]------|
|-0-------|-1----0----|---0-----0---|---0--------0-0-|------0-0------0-0--|


    E  E E Q.     +Q.    Q.     Q.    E  E E    E  E E   Q   E   E E E Q.
|---------------|-------------|--------------|-----------------|-------------|
|---------------|-------------|--------------|-----------------|-------------|
|----------9----|-(9)---10----|-6------------|-----------------|-------------|
|---------------|-------------|--------------|---------[10]----|-------------|
|-[10]-----7----|-(7)----8----|-4----<7>-----|-<7>-------------|-------2-----|
|------0-0------|-------------|----------0-0-|-----0-0-------3-|-1-0-1-0-----|
|
|   E  E E Q.     +Q.    Q.     Q.    E  E E    E  E E   Q   E   E E E Q.
|---------------|-------------|--------------|-----------------|------------|
|---------------|-------------|--------------|-----------------|------------|
|----------9----|-(9)---10----|-6------------|-----------------|------------|
|---------------|-------------|--------------|---------[10]----|------------|
|-[10]-----7----|-(7)----8----|-4----<7>-----|-<7>-------------|-------2----|
|------0-0------|-------------|----------0-0-|-----0-0-------3-|-1-0-1-0----|


              9/8                6/8
  +Q.   Q.     Q.   E E E E E E   Q.   Q.
|------------|------------------|---------|
|------------|------6-----5-----|-7-------|
|------------|------------------|---------|
|------------|--------2-3---2-3-|---------|
|-(2)---3----|-4----------------|---------|
|-(0)---1----|-0----------------|---------|
|
| +Q.   Q.     Q.   E E E E E E   Q.   Q.
|------------|------------------|---------|
|------------|------------------|---------|
|------------|------------------|---------|
|------------|------3-----2-----|-4-------|
|-(2)---3----|-4--------1-----0-|---------|
|-(0)---1----|-0------0-----0---|---------|


    E E E E E E   E E E E E E  3x E E E E E E   E E E E E E     E E E E E E
||--------------|--------------||-------------|-------------||--------------|
||o-------------|-------------o||-----9-------|---6---------||o-------------|
||--------------|---5-----6----||---6---6---7-|-6---6-7---6-||--------------|
||------3-----2-|-3---2-3---2--||-5-------5---|---------8---||------3-----2-|
||o---1---1-----|-------------o||-------------|-------------||o---1---1-----|
||--0-------1---|--------------||-------------|-------------||--0-------1---|
|
|   E E E E E E   E E E E E E  3x E E E E E E   E E E E E E     E E E E E E
||--------------|--------------||-------------|-------------||--------------|
||o-------------|-------------o||-------------|-------------||o-------------|
||--------------|---5-----6----||-------------|---5-----6---||--------------|
||------3-----2-|-3---2-3---2--||-----3-----2-|-3---2-3---2-||------3-----2-|
||o---1---1-----|-------------o||---1---1-----|-------------||o---1---1-----|
||--0-------1---|--------------||-0-------1---|-------------||--0-------1---|


  E E E E E E     E E E E E E   E E E E E E   H.             E E E E E E
|--------------||-------------|-------------|--------------|--------------|
|-------------o||-----9-------|---6---------|--------------|--------------|
|---5-----6----||---6---6---7-|-6---6-7---6-|--------------|-----3-----2--|
|-3---2-3---2--||-5-------5---|---------8---|--------------|---2-----1----|
|-------------o||-------------|-------------|--------------|-1-----0------|
|--------------||-------------|-------------|--------------|--------------|
|
| E E E E E E     E E E E E E   E E E E E E   E  E E E E E   E E E E E E
|--------------||-------------|-------------|--------------|--------------|
|-------------o||-------------|-------------|--------------|--------------|
|---5-----6----||-------------|---5-----6---|--------------|--------------|
|-3---2-3---2--||-----3-----2-|-3---2-3---2-|------2-----3-|-----4-----3--|
|-------------o||---1---1-----|-------------|----1-----1---|---1-----1----|
|--------------||-0-------1---|-------------|-0------1-----|-0-----1------|


  E E E E  E E    H     +E   E    Q.    Q.     E E E E E E   E E E E E E
|--------------|---------------|-------------|-------------|--------------|
|--------------|---------------|-------------|-------------|--------------|
|--------------|---------------|-------------|-----3-----2-|--------------|
|------------2-|---------------|-------------|---2-----2---|-----2-----3--|
|-0-1-4-0--3---|--1-----(1)--1-|--3-----2----|-1-----3-----|---0-----1----|
|--------------|--1-----(1)--1-|--3-----2----|-------------|-0-----0------|
|
| E E E Q.        H     +E   E    Q.    Q.     E E E E E E   E E E E E E
|--------------|---------------|-------------|-------------|--------------|
|--------------|---------------|-------------|-------------|--------------|
|--------------|-10----(10)-10-|-12----11----|-------------|--------------|
|-----2--------|--8-----(8)--8-|-10-----9----|-----4-----3-|-----2-----3--|
|-1-4----------|---------------|-------------|---0-----1---|---0-----1----|
|--------------|---------------|-------------|-0-----0-----|-0-----0------|


                             7/8             6/8
  E E E E E E   E E E E E E   E E E E E E E   E E E E E E
|-------------|-------------|---------------|-------------|
|-------------|-------------|---------------|-------------|
|-------------|-------------|---6-------5---|-------------|
|-------------|-----2-----3-|-----7-6-----3-|---2-----3---|
|-----3-----4-|---0-----1---|-4-------3-----|-----0-----1-|
|-0-1---0-1---|-0-----0-----|---------------|-0-----1-----|
|
| E E E E E E   E E E E E E   E E E E E E E   E E E E E E
|-------------|-------------|---------------|-------------|
|-------------|-------------|---------------|-------------|
|-------------|-------------|---3-------2---|-------------|
|-------------|-----2-----3-|-----3-2-----3-|---2-----3---|
|-----3-----4-|---0-----1---|---------1-----|-----0-----1-|
|-0-1---0-1---|-0-----0-----|-1-------------|-0-----1-----|


               5/8         6/8
  E E E E E E   E E E E E   Q  Q  Q
|-------------|-----------|----------|
|-------------|-----------|-7-----6--|
|-------------|-----------|-4--x--3--|
|-------------|---2-----3-|----x-----|
|---3-----4---|-----0-1---|----------|
|-0---1-0---1-|-0---------|----------|
|
| E E E E E E   E E E E E   Q  Q  Q
|-------------|-----------|----------|
|-------------|-----------|----------|
|-------------|-----------|----------|
|-------------|---2-----3-|----------|
|---3-----4---|-----0-1---|-7--8--6--|
|-0---1-0---1-|-0---------|-7--8--6--|


  E E E E E E   E E E E E E   E E E E E E
|-------------|-------------|--------------|
|-------------|-------------|--------------|
|-------------|-------------|--------------|
|-----2-----3-|-------------|-----2-----3--|
|---0-----1---|-----3-----4-|---1-----1----|
|-0-----0-----|-0-1---0-1---|-0-----0------|
|
| E E E E E E   E E E E E E   E E E E E E
|-------------|-------------|--------------|
|-------------|-------------|--------------|
|-------------|-------------|--------------|
|-----2-----3-|-------------|-----2-----3--|
|---0-----1---|-----3-----4-|---1-----1----|
|-0-----0-----|-0-1---0-1---|-0-----0------|


 7/8             6/8
  E E E E E E E   E E E E E E   H.
|---------------|-------------|---------|
|---------------|-------------|---------|
|---6-------5---|-----6-----6-|-3-------|
|-----7-6-----3-|---3-----3---|-2-------|
|-4-------3-----|-------1-----|-1-------|
|---------------|-0-----------|---------|
|
| E E E E E E E   E E E E E E   H.
|---------------|-------------|---------|
|---------------|-------------|---------|
|---3-------2---|-------------|---------|
|-----3-2-----3-|-----2-----3-|---------|
|---------1-----|---1-----1---|---------|
|-1-------------|-0-----0-----|-0-------|


  +Q   E Q.     +H     +E   E    Q.   Q.     H.
|-------------|---------------|------------|-------|
|-------------|---------------|------------|-------|
|-(3)----3----|-(3)----(3)-12-|-11---------|-------|
|-(2)--5-5----|-(5)----(5)-10-|--9---------|-------|
|-(1)--7------|---------------|------------|-------|
|-------------|---------------|------------|-------|
|
| +Q   E Q.     +H     +E   E    Q.   Q.     H.
|-------------|---------------|------------|-------|
|-------------|---------------|------------|-------|
|-------------|---------------|------------|-------|
|--------5----|-(5)----(5)--5-|--4---------|-------|
|--------7----|-(7)----(7)--3-|--2---------|-------|
|-(0)--0------|---------------|------------|-------|


  Q.   Q.     Q.    Q   E    Q.   Q.     E E E E E E   Q.   Q.
|-----------|-------------|------------|-------------|------------|
|-----------|-------------|------------|-------------|------------|
|-----------|-3----11--12-|-10---------|-------------|------------|
|------2----|-5-----9--10-|--8----4----|---2---------|------2-----|
|-2---------|-------------|------------|-----0-1---1-|-2----------|
|-0---------|-------------|------------|-0-------1---|-0----------|
|
| Q.   Q.     Q.    Q   E    Q.   Q.     E E E E E E   Q.   Q.
|-----------|-------------|------------|-------------|------------|
|-----------|-------------|------------|-------------|------------|
|-----------|-------------|------------|-------------|------------|
|------5----|-5-----------|------------|---2---------|------5-----|
|-2---------|-7-----7---8-|--6----6----|-----0-1-----|-2----------|
|-0---------|-------7---8-|--6---------|-0-------1-1-|-0----------|


                          9/8
  Q.    Q   E    H.        E E E E E E E E E
|-------------|----------|-------------------|
|-------------|----------|-------------------|
|-3----12--11-|-10-------|-------------------|
|-5----10---9-|--8-------|-----3-----2h3h5p3-|
|-------------|----------|---1---1-----------|
|-------------|----------|-0-------1---------|
|
| Q.    Q   E    H.        E E E E E E E E E
|-------------|----------|-------------------|
|-------------|----------|-------------------|
|-------------|----------|-------------------|
|-5-----------|----------|-----------2h3h5p3-|
|-7-----8---7-|--6-------|---1-4-1-----------|
|-------8---7-|--6-------|-0-------1---------|


 6/8
  Q.   Q.     Q.    Q   E    Q.   Q.
|-----------|-------------|------------|
|-----------|-------------|------------|
|-----------|-3----11--12-|-10---------|
|------2----|-5-----9--10-|--8----4----|
|-2---------|-------------|------------|
|-0---------|-------------|------------|
|
| Q.   Q.     Q.    Q   E    Q.   Q.
|-----------|-------------|------------|
|-----------|-------------|------------|
|-----------|-------------|------------|
|------5----|-5-----------|------------|
|-2---------|-7-----7---8-|--6----6----|
|-0---------|-------7---8-|--6---------|


  E E E E E E   Q.   Q.     Q.    Q   E
|-------------|-----------|-------------|
|-------------|-----------|-------------|
|-------------|-----------|-3----12--11-|
|---2---------|------2----|-5----10---9-|
|-----0-1---1-|-2---------|-------------|
|-0-------1---|-0---------|-------------|
|
| E E E E E E   Q.   Q.     Q.    Q   E
|-------------|-----------|-------------|
|-------------|-----------|-------------|
|-------------|-----------|-------------|
|---2---------|------5----|-5-----------|
|-----0-1-----|-2---------|-7-----8---7-|
|-0-------1-1-|-0---------|-------8---7-|


   H.          E E E E E E   E E E E E E
|----------||--------------|--------------||
|----------||o-------------|-------------o||
|-10-------||--------------|---5-----6----||
|--8-------||------3-----2-|-3---2-3---2--||
|----------||o---1---1-----|-------------o||
|----------||--0-------1---|--------------||
|
|  H.          E E E E E E   E E E E E E
|----------||--------------|--------------||
|----------||o-------------|-------------o||
|----------||--------------|---5-----6----||
|----------||------3-----2-|-3---2-3---2--||
|--6-------||o---1---1-----|-------------o||
|--6-------||--0-------1---|--------------||


  E E E E E E   E E E E E E   H.             E E E E E E
|-------------|-------------|--------------|--------------|
|-----9-------|---6---------|--------------|--------------|
|---6---6---7-|-6---6-7---6-|--------------|-----3-----2--|
|-5-------5---|---------8---|--------------|---2-----1----|
|-------------|-------------|--------------|-1-----0------|
|-------------|-------------|--------------|--------------|
|
| E E E E E E   E E E E E E   E  E E E E E   E E E E E E
|-------------|-------------|--------------|--------------|
|-------------|-------------|--------------|--------------|
|-------------|---5-----6---|--------------|--------------|
|-----3-----2-|-3---2-3---2-|------2-----3-|-----4-----3--|
|---1---1-----|-------------|----1-----1---|---1-----1----|
|-0-------1---|-------------|-0------1-----|-0-----1------|


    E E E E E E   E E E E E E     E E E E E E   E E E E E E   E E E E E E
||--------------|--------------||-------------|-------------|-------------|
||o-------------|-------------o||-----9-------|---6---------|-------------|
||--------------|---5-----6----||---6---6---7-|-6---6-7---6-|-----6-----6-|
||------3-----2-|-3---2-3---2--||-5-------5---|---------8---|---3-----3---|
||o---1---1-----|-------------o||-------------|-------------|-------1-----|
||--0-------1---|--------------||-------------|-------------|-0-----------|
|
|   E E E E E E   E E E E E E     E E E E E E   E E E E E E   E E E E E E
||--------------|--------------||-------------|-------------|-------------|
||o-------------|-------------o||-------------|-------------|-------------|
||--------------|---5-----6----||-------------|---5-----6---|-------------|
||------3-----2-|-3---2-3---2--||-----3-----2-|-3---2-3---2-|-----2-----3-|
||o---1---1-----|-------------o||---1---1-----|-------------|---1-----1---|
||--0-------1---|--------------||-0-------1---|-------------|-0-----0-----|


  E E E E E E   E E E E  E E   Q.   Q.     Q.    Q   E    Q.   Q.
|-------------|--------------|-----------|-------------|-------------|
|-------------|--------------|-----------|-------------|-------------|
|-----3-----2-|--------------|-----------|-3----11--12-|-10----8-----|
|---2-----1---|------------2-|------2----|-5-----9--10-|--8----4-----|
|-1-----0-----|-0-1-4-0--3---|-2---------|-------------|-------------|
|-------------|--------------|-0---------|-------------|-------------|
|
| E E E E E E   E E E Q.       Q.   Q.     Q.    Q   E    Q.   Q.
|-------------|--------------|-----------|-------------|-------------|
|-------------|--------------|-----------|-------------|-------------|
|-------------|--------------|-----------|-------------|-------------|
|-----4-----3-|-----2--------|------5----|-5-----------|-------4-----|
|---1-----1---|-1-4----------|-2---------|-7-----7---8-|--6----6-----|
|-0-----1-----|--------------|-0---------|-------7---8-|--6----------|


  E E E E E E   Q.   Q.     Q.    Q   E    H.        E E E E E E
|-------------|-----------|-------------|----------|--------------|
|-------------|-----------|-------------|----------|--------------|
|-------------|-----------|-3----12--11-|-10-------|--------------|
|---2---------|------2----|-5----10---9-|--8-------|-----2-----3--|
|-----0-1---1-|-2---------|-------------|----------|---1-----1----|
|-0-------1---|-0---------|-------------|----------|-0-----0------|
|
| E E E E E E   Q.   Q.     Q.    Q   E    H.        E E E E E E
|-------------|-----------|-------------|----------|--------------|
|-------------|-----------|-------------|----------|--------------|
|-------------|-----------|-------------|----------|--------------|
|---2---------|------5----|-5-----------|----------|-----2-----3--|
|-----0-1-----|-2---------|-7-----8---7-|--6-------|---1-----1----|
|-0-------1-1-|-0---------|-------8---7-|--6-------|-0-----0------|


  Q.   Q.     Q.    Q   E    Q.   Q.     E E E E E E   Q.   Q.
|-----------|-------------|------------|-------------|------------|
|-----------|-------------|------------|-------------|------------|
|-----------|-3----11--12-|-10----8----|-------------|------------|
|------2----|-5-----9--10-|--8----4----|---2---------|------2-----|
|-2---------|-------------|------------|-----0-1---1-|-2----------|
|-0---------|-------------|------------|-0-------1---|-0----------|
|
| Q.   Q.     Q.    Q   E    Q.   Q.     E E E E E E   Q.   Q.
|-----------|-------------|------------|-------------|------------|
|-----------|-------------|------------|-------------|------------|
|-----------|-------------|------------|-------------|------------|
|------5----|-5-----------|-------4----|---2---------|------5-----|
|-2---------|-7-----7---8-|--6----6----|-----0-1-----|-2----------|
|-0---------|-------7---8-|--6---------|-0-------1-1-|-0----------|


  Q.    Q   E    H.        E E E Q.     Q.   Q.     Q.    Q   E    Q.   Q.
|-------------|----------|------------|-----------|-------------|-----------|
|-------------|----------|------------|-----------|-------------|-----------|
|-3----12--11-|-10-------|---6--------|-----------|-3----11--12-|-10----8---|
|-5----10---9-|--8-------|-----5-4----|------2----|-5-----9--10-|--8----4---|
|-------------|----------|------------|-2---------|-------------|-----------|
|-------------|----------|-6----------|-0---------|-------------|-----------|
|
| Q.    Q   E    H.        E E E Q.     Q.   Q.     Q.    Q   E    Q.   Q.
|-------------|----------|------------|-----------|-------------|-----------|
|-------------|----------|------------|-----------|-------------|-----------|
|-------------|----------|---3--------|-----------|-------------|-----------|
|-5-----------|----------|-----2-1----|------5----|-5-----------|-------4---|
|-7-----8---7-|--6-------|------------|-2---------|-7-----7---8-|--6----6---|
|-------8---7-|--6-------|-0----------|-0---------|-------7---8-|--6--------|


  E E E E E E   Q.   Q.     Q.    Q   E    H.        E E E E E E
|-------------|-----------|-------------|----------|--------------|
|-------------|-----------|-------------|----------|--------------|
|-------------|-----------|-3----12--11-|-10-------|--------------|
|---2---------|------2----|-5----10---9-|--8-------|-----2-----3--|
|-----0-1---1-|-2---------|-------------|----------|---1-----1----|
|-0-------1---|-0---------|-------------|----------|-0-----0------|
|
| E E E E E E   Q.   Q.     Q.    Q   E    H.        E E E E E E
|-------------|-----------|-------------|----------|--------------|
|-------------|-----------|-------------|----------|--------------|
|-------------|-----------|-------------|----------|--------------|
|---2---------|------5----|-5-----------|----------|-----2-----3--|
|-----0-1-----|-2---------|-7-----8---7-|--6-------|---1-----1----|
|-0-------1-1-|-0---------|-------8---7-|--6-------|-0-----0------|


  Q.   Q.     Q.    Q   E    Q.   Q.     E E E E E E   Q.   Q.     Q.    Q   E
|-----------|-------------|------------|-------------|-----------|----------|
|-----------|-------------|------------|-------------|-----------|----------|
|-----------|-3----11--12-|-10----8----|-------------|-----------|-3-12--11-|
|------2----|-5-----9--10-|--8----4----|---2---------|------2----|-5-10---9-|
|-2---------|-------------|------------|-----0-1---1-|-2---------|----------|
|-0---------|-------------|------------|-0-------1---|-0---------|----------|
|
| Q.   Q.     Q.    Q   E    Q.   Q.     E E E E E E   Q.   Q.     Q.    Q   E
|-----------|-------------|------------|-------------|-----------|----------|
|-----------|-------------|------------|-------------|-----------|----------|
|-----------|-------------|------------|-------------|-----------|----------|
|------5----|-5-----------|-------4----|---2---------|------5----|-5--------|
|-2---------|-7-----7---8-|--6----6----|-----0-1-----|-2---------|-7-----8-7|
|-0---------|-------7---8-|--6---------|-0-------1-1-|-0---------|-------8-7|


   H.          E E E E E E   E E E E E E     E E E E E E   E E E E E E
|----------||--------------|--------------||-------------|--------------|
|----------||o-------------|-------------o||-----9-------|---6----------|
|-10-------||--------------|---5-----6----||---6---6---7-|-6---6-7---6--|
|--8-------||------3-----2-|-3---2-3---2--||-5-------5---|---------8----|
|----------||o---1---1-----|-------------o||-------------|--------------|
|----------||--0-------1---|--------------||-------------|--------------|
|
|  H.          E E E E E E   E E E E E E     E E E E E E   E E E E E E
|----------||--------------|--------------||-------------|--------------|
|----------||o-------------|-------------o||-------------|--------------|
|----------||--------------|---5-----6----||-------------|---5-----6----|
|----------||------3-----2-|-3---2-3---2--||-----3-----2-|-3---2-3---2--|
|--6-------||o---1---1-----|-------------o||---1---1-----|--------------|
|--6-------||--0-------1---|--------------||-0-------1---|--------------|


  H.             E E E E E E     E E E E E E
|--------------|-------------||--------------|
|--------------|-------------||o-------------|
|--------------|-----3-----2-||--------------|
|--------------|---2-----1---||------3-----2-|
|--------------|-1-----0-----||o---1---1-----|
|--------------|-------------||--0-------1---|
|
| E  E E E E E   E E E E E E     E E E E E E
|--------------|-------------||--------------|
|--------------|-------------||o-------------|
|--------------|-------------||--------------|
|------2-----3-|-----4-----3-||------3-----2-|
|----1-----1---|---1-----1---||o---1---1-----|
|-0------1-----|-0-----1-----||--0-------1---|


  E E E E E E     E E E E E E   E E E E E E
|--------------||-------------|-------------|
|-------------o||-----9-------|---6---------|
|---5-----6----||---6---6---7-|-6---6-7---6-|
|-3---2-3---2--||-5-------5---|---------8---|
|-------------o||-------------|-------------|
|--------------||-------------|-------------|
|
| E E E E E E     E E E E E E   E E E E E E
|--------------||-------------|-------------|
|-------------o||-------------|-------------|
|---5-----6----||-------------|---5-----6---|
|-3---2-3---2--||-----3-----2-|-3---2-3---2-|
|-------------o||---1---1-----|-------------|
|--------------||-0-------1---|-------------|


  E E E E E E   E E E E E E   E E E E  E E
|-------------|-------------|--------------|
|-------------|-------------|--------------|
|-----6-----6-|-----3-----2-|--------------|
|---3-----3---|---2-----1---|------------2-|
|-------1-----|-1-----0-----|-0-1-4-0--3---|
|-0-----------|-------------|--------------|
|
| E E E E E E   E E E E E E   E E E Q.
|-------------|-------------|--------------|
|-------------|-------------|--------------|
|-------------|-------------|--------------|
|-----2-----3-|-----4-----3-|-----2--------|
|---1-----1---|---1-----1---|-1-4----------|
|-0-----0-----|-0-----1-----|--------------|


   H     +E   E    Q.    Q.     E E E E E E
|---------------|-------------|-------------|
|---------------|-------------|-------------|
|---------------|-------------|-----3-----2-|
|---------------|-------------|---2-----2---|
|--1-----(1)--1-|--3-----2----|-1-----3-----|
|--1-----(1)--1-|--3-----2----|-------------|
|
|  H     +E   E    Q.    Q.     E E E E E E
|---------------|-------------|-------------|
|---------------|-------------|-------------|
|-10----(10)-10-|-12----11----|-------------|
|--8-----(8)--8-|-10-----9----|-----4-----3-|
|---------------|-------------|---0-----1---|
|---------------|-------------|-0-----0-----|


  E E E E E E   E E E E E E   E E E E E E
|-------------|-------------|-------------|
|-------------|-------------|-------------|
|-------------|-------------|-------------|
|-----2-----3-|-------------|-----2-----3-|
|---0-----1---|-----3-----4-|---0-----1---|
|-0-----0-----|-0-1---0-1---|-0-----0-----|
|
| E E E E E E   E E E E E E   E E E E E E
|-------------|-------------|-------------|
|-------------|-------------|-------------|
|-------------|-------------|-------------|
|-----2-----3-|-------------|-----2-----3-|
|---0-----1---|-----3-----4-|---0-----1---|
|-0-----0-----|-0-1---0-1---|-0-----0-----|


 7/8             6/8                         5/8         6/8
  E E E E E E E   E E E E E E   E E E E E E   E E E E E   Q  Q  Q
|---------------|-------------|-------------|-----------|----------|
|---------------|-------------|-------------|-----------|-7-----6--|
|---6-------5---|-------------|-------------|-----------|-4--x--3--|
|-----7-6-----3-|---2-----3---|-------------|---2-----3-|----x-----|
|-4-------3-----|-----0-----1-|---3-----4---|-----0-1---|----------|
|---------------|-0-----1-----|-0---1-0---1-|-0---------|----------|
|
| E E E E E E E   E E E E E E   E E E E E E   E E E E E   Q  Q  Q
|---------------|-------------|-------------|-----------|----------|
|---------------|-------------|-------------|-----------|----------|
|---3-------2---|-------------|-------------|-----------|----------|
|-----3-2-----3-|---2-----3---|-------------|---2-----3-|----------|
|---------1-----|-----0-----1-|---3-----4---|-----0-1---|-7--8--6--|
|-1-------------|-0-----1-----|-0---1-0---1-|-0---------|-7--8--6--|


                                           7/8             6/8
  E E E E E E   E E E E E E   E E E E E E   E E E E E E E   E E E E E E
|-------------|-------------|-------------|---------------|-------------|
|-------------|-------------|-------------|---------------|-------------|
|-------------|-------------|-------------|---6-------5---|-----6-----6-|
|-----2-----3-|-------------|-----2-----3-|-----7-6-----3-|---3-----3---|
|---0-----1---|-----3-----4-|---1-----1---|-4-------3-----|-------1-----|
|-0-----0-----|-0-1---0-1---|-0-----0-----|---------------|-0-----------|
|
| E E E E E E   E E E E E E   E E E E E E   E E E E E E E   E E E E E E
|-------------|-------------|-------------|---------------|-------------|
|-------------|-------------|-------------|---------------|-------------|
|-------------|-------------|-------------|---3-------2---|-------------|
|-----2-----3-|-------------|-----2-----3-|-----3-2-----3-|-----2-----3-|
|---0-----1---|-----3-----4-|---1-----1---|---------1-----|---1-----1---|
|-0-----0-----|-0-1---0-1---|-0-----0-----|-1-------------|-0-----0-----|


  H.        +Q   E Q.     +H     +E   E    Q.   Q.
|---------|-------------|---------------|-------------|
|---------|-------------|---------------|-------------|
|-3-------|-(3)----3----|-(3)----(3)-12-|-11----------|
|-2-------|-(2)--5-5----|-(5)----(5)-10-|--9----------|
|-1-------|-(1)--7------|---------------|-------------|
|---------|-------------|---------------|-------------|
|
| H.        +Q   E Q.     +H     +E   E    Q.   Q.
|---------|-------------|---------------|-------------|
|---------|-------------|---------------|-------------|
|---------|-------------|---------------|-------------|
|---------|--------5----|-(5)----(5)--5-|--4----------|
|---------|--------7----|-(7)----(7)--3-|--2----------|
|-0-------|-(0)--0------|---------------|-------------|


               5/8         6/8                      3/8
  E E E E E E   E E E E E   Q  Q  Q    E E E E E E   Q  E
|-------------|-----------|----------|-------------|------|
|-------------|-----------|-7-----6--|-------------|-7--8-|
|-------------|-----------|-4--x--3--|-------------|-4--5-|
|-------------|-----2---3-|----x-----|-----2-----3-|------|
|-----3-----4-|---0---1---|----------|---0-----1---|------|
|-0-1---0-1---|-0---------|----------|-0-----0-----|------|
|
| E E E E E E   E E E E E   Q  Q  Q    E E E E E E   Q  E
|-------------|-----------|----------|-------------|------|
|-------------|-----------|----------|-------------|------|
|-------------|-----------|----------|-------------|------|
|-------------|-----2---3-|----------|-----2-----3-|------|
|-----3-----4-|---0---1---|-7--8--6--|---0-----1---|-7--8-|
|-0-1---0-1---|-0---------|-7--8--6--|-0-----0-----|-7--8-|


 6/8
  E E E E E E   E E E E E E   E E E E E E   E E E E E E   Q  Q  Q
|-------------|-------------|-------------|-------------|----------|
|-------------|-------------|-------------|-------------|-7-----6--|
|-----3-----2-|-------------|-------------|-------------|-4--x--3--|
|---2-----2---|-----2-----3-|-------------|-----2-----3-|----x-----|
|-1-----3-----|---0-----1---|-----3-----4-|---0-----1---|----------|
|-------------|-0-----0-----|-0-1---0-1---|-0-----0-----|----------|
|
| E E E E E E   E E E E E E   E E E E E E   E E E E E E   Q  Q  Q
|-------------|-------------|-------------|-------------|----------|
|-------------|-------------|-------------|-------------|----------|
|-------------|-------------|-------------|-------------|----------|
|-----4-----3-|-----2-----3-|-------------|-----2-----3-|----------|
|---0-----1---|---0-----1---|-----3-----4-|---0-----1---|-7--8--6--|
|-0-----0-----|-0-----0-----|-0-1---0-1---|-0-----0-----|-7--8--6--|


               3/8    6/8           7/8
  E E E E E E   Q  E   E E E E E E   E E E E E E E
|-------------|------|-------------|---------------|
|-------------|-7--8-|-------------|-------5---6---|
|-------------|-4--5-|-----3-----2-|-0-6-0---0---0-|
|-----2-----3-|------|---2-----2---|---------------|
|---0-----1---|------|-1-----3-----|---------------|
|-0-----0-----|------|-------------|---------------|
|
| E E E E E E   Q  E   E E E E E E   E E E E E E E
|-------------|------|-------------|---------------|
|-------------|------|-------------|---------------|
|-------------|------|-------------|---3---4---5---|
|-----2-----3-|------|-----4-----3-|-2---2---2---2-|
|---0-----1---|-7--8-|---0-----1---|---------------|
|-0-----0-----|-7--8-|-0-----0-----|---------------|


 6/8
  E E E E E E   E E E E E E   E E E E E E   Q  Q  Q
|-------------|-------------|-------------|----------|
|-------------|-------------|-------------|-7-----6--|
|-------------|-------------|-------------|-4--x--3--|
|-----2-----3-|-------------|-----2-----3-|----x-----|
|---0-----1---|-----3-----4-|---0-----1---|----------|
|-0-----0-----|-0-1---0-1---|-0-----0-----|----------|
|
| E E E E E E   E E E E E E   E E E E E E   Q  Q  Q
|-------------|-------------|-------------|----------|
|-------------|-------------|-------------|----------|
|-------------|-------------|-------------|----------|
|-----2-----3-|-------------|-----2-----3-|----------|
|---0-----1---|-----3-----4-|---0-----1---|-7--8--6--|
|-0-----0-----|-0-1---0-1---|-0-----0-----|-7--8--6--|


               3/8    6/8
  E E E E E E   Q  E   E E E E E E   E E E E E E   E E E E E E
|-------------|------|-------------|-------------|-------------|
|-------------|-7--8-|-------------|-------------|-------------|
|-------------|-4--5-|-----3-----2-|-------------|-------------|
|-----2-----3-|------|---2-----2---|-----2-----3-|-----2-----2-|
|---0-----1---|------|-1-----3-----|---1-----1---|-1-4-----1---|
|-0-----0-----|------|-------------|-0-----0-----|-------0-----|
|
| E E E E E E   Q  E   E E E E E E   E E E E E E   E E E E E E
|-------------|------|-------------|-------------|-------------|
|-------------|------|-------------|-------------|-------------|
|-------------|------|-------------|-------------|-------------|
|-----2-----3-|------|-----4-----3-|-----2-----3-|-----------2-|
|---0-----1---|-7--8-|---0-----1---|---1-----1---|---1-4---1---|
|-0-----0-----|-7--8-|-0-----0-----|-0-----0-----|-0-----0-----|


                             9/8                 6/8
  E E E E E E   E E E E E E   E E E E E E E E E   H.
|-------------|-------------|-------------3-6-3-|-------|
|-------------|-------------|-------------------|-------|
|-------------|-------------|-------------------|-3-----|
|-----3-----2-|-----2-------|-----7-5---5-------|-2-----|
|---1---1-4---|---1-----1---|-4-7-----4---------|-1-----|
|-0-----------|-0-----0---1-|-------------------|-------|
|
| E E E E E E   E E E E E E   E E E E E E E E E   H.
|-------------|-------------|-------------------|-------|
|-------------|-------------|-------------------|-------|
|-------------|-------------|-------------------|-------|
|-----3-------|-----2-------|-------------------|-------|
|---1-----1-4-|---1-----1---|---1-------1-------|-------|
|-0-----0-----|-0-----0---1-|-0---0-0-1---3-6-3-|-0-----|


  +Q   E Q.     +H     +E   E    Q.   Q.
|-------------|---------------|------------|
|-------------|---------------|------------|
|-(3)----3----|-(3)----(3)-12-|-11---------|
|-(2)--5-5----|-(5)----(5)-10-|--9---------|
|-(1)--7------|---------------|------------|
|-------------|---------------|------------|
|
| +Q   E Q.     +H     +E   E    Q.   Q.
|-------------|---------------|------------|
|-------------|---------------|------------|
|-------------|---------------|------------|
|--------5----|-(5)----(5)--5-|--4---------|
|--------7----|-(7)----(7)--3-|--2---------|
|-(0)--0------|---------------|------------|


  E E E E E E   E E E E E E   E E E E E E   E E E E E E   E E E E E E
|-------------|-------------|-------------|-----------9-|--------------|
|-------------|-------------|-------------|---------8---|--------------|
|-------------|-------------|-------------|-------6-----|--------------|
|-------3-----|-------2-----|-------3-----|-------------|-2-----3------|
|---1-----1---|---1-----1---|---1-----1---|---1---------|---1-----1----|
|-0---0-----3-|-0---0-----1-|-0---0-----3-|-0---0-------|-----0-----3--|
|
| E E E E E E   E E E E E E   E E E E E E   E E E E E E   E E E E E E
|-------------|-------------|-------------|-------------|--------------|
|-------------|-------------|-------------|-----------5-|--------------|
|-------------|-------------|-------------|-------------|--------------|
|-------3-----|-------2-----|-------3-----|-------2h5---|-------3------|
|---1-----1---|---1-----1---|---1-----1---|---1---------|---1-----1----|
|-0---0-----3-|-0---0-----1-|-0---0-----3-|-0---0-------|-0---0-----3--|


  E E E E E E   E E E E E E   E E E E E E   Q.   Q  E   Q.     E  E E
|-------------|-------------|-------------|-----------|----------------|
|-------------|---6---6---7-|---6---------|-----------|----------------|
|-------------|-------------|-------------|---------3-|----------------|
|-2-----5---6-|-----3---3---|-3---3-------|---------2-|-----------2-3--|
|---1---------|-------------|-------4-4-4-|-4----1--1-|--------1-------|
|-----1---1---|-1-----------|-------0-0-0-|-0----0----|----------------|
|
| E E E E E E   E E E E E E   E E E E E E   Q.   Q  E   E  E E Q.
|-------------|-------------|-------------|-----------|----------------|
|-------------|-------------|-------------|-----------|----------------|
|-------------|-------------|-------------|-----------|----------------|
|-------2-----|---3---3---4-|---3---------|-----------|------2---------|
|---1-----1---|-------------|-------4-4-4-|-4----1----|----1-----------|
|-0---1-----1-|-1---1---1---|-1---1-0-0-0-|-0----0--0-|-0--------------|


      E  E E   E  E E     E  E E   E  E E
||--------------------|-------------------|
||o-------------------|-------------------|
||--------------------|-------------------|
||--------------------|-------------------|
||o-[10]-----[10]-----|-[10]-----[10]-----|
||-------0-0------0-0-|------0-0------0-0-|
|
|     E  E E   E  E E     E  E E   E  E E
||--------------------|-------------------|
||o-------------------|-------------------|
||--------------------|-------------------|
||--------------------|-------------------|
||o-[10]-----[10]-----|-[10]-----[10]-----|
||-------0-0------0-0-|------0-0------0-0-|


  E E E   E  E E   E E E E E E    Q   E   E  E E
|----------------|-------------|-----------------|
|----------------|-------------|-----------------|
|---6------------|-------------|-----------------|
|-5--------------|-------------|-----------------|
|-------[10]-----|-------------|-[7]----[10]-----|
|-----0------0-0-|-0h1h2h5p2p1-|------0------0-0-|
|
| E E E   E  E E   E E E E E E    Q   E   E  E E
|----------------|-------------|-----------------|
|----------------|-------------|-----------------|
|----------------|-------------|-----------------|
|---8------------|-------------|-----------------|
|-7-----[10]-----|-------------|--------[10]-----|
|-----0------0-0-|-0h1h2h5p2p1-|--0---0------0-0-|


    E  E E   E  E E   Q  E   E  E E   E E E E E E
|-------------------|---------------|--------------||
|-------------------|---------------|-------------o||
|-------------------|---------------|--------------||
|-------------------|---------------|--------------||
|-[10]-----[10]-----|-4--4-[10]---0h|=1p0h4p1p0h1-o||
|------0-0------0-0-|-----------0---|--------------||
|
|   E  E E   E  E E   Q  E   E  E E   E E E E E E
|-------------------|---------------|--------------||
|-------------------|---------------|-------------o||
|-------------------|---------------|--------------||
|-------------------|---------------|--------------||
|-[10]-----[10]-----|-1--1-[10]-----|-------------o||
|------0-0------0-0-|-----------0-0h|=1p0h5p2p1h2--||


   Q.     E  E E     E  E E   E  E E
|----------------|-------------------|
|----------------|-------------------|
|----------------|-------------------|
|----------------|-------------------|
|--3----[10]-----|-[10]-----[10]-----|
|--1---------0-0-|------0-0------0-5-|
|
|  Q.     E  E E     E  E E   E  E E
|----------------|-------------------|
|----------------|-------------------|
|----------------|-------------------|
|-10-------------|-------------------|
|--8----[10]-----|-[10]-----[10]-----|
|------------0-0-|------0-0------0-5-|


  Q.     E  E E     E  E E E E E   Q.     E  E E
|---------------|----------------|----------------|
|---------------|----------------|----------------|
|---------------|----------------|----------------|
|---------------|----------------|----------------|
|-4----[10]-----|-[10]-----------|-3----[10]------|
|-2---------0-0-|------0-5-2-1-2-|-1---------0-0--|
|
| Q.     E  E E     E  E E E E E   Q.     E  E E
|---------------|----------------|----------------|
|---------------|----------------|----------------|
|---------------|----------------|----------------|
|---------------|----------------|----------------|
|-4----[10]-----|-[10]-----------|-3----[10]------|
|-2---------0-0-|------0-5-2-1-2-|-1---------0-0--|


    E  E E   E  E E   Q.   E E E   E E E Q  E
|-------------------|------------|------------|
|-------------------|------------|------------|
|-------------------|------------|-------1----|
|-------------------|------------|-----2------|
|-[10]-----[10]---7-|-4------1-0-|-1-4--------|
|------0-0------0---|------0-----|------------|
|
|   E  E E   E  E E   Q.   E E E   E E E Q  E
|-------------------|------------|------------|
|-------------------|------------|------------|
|-------------------|------------|------------|
|-------------------|------------|-------3----|
|-[10]-----[10]---3-|-1----------|-----4------|
|------0-0------0---|------0-1-0-|-1-4--------|


      E  E E   E  E E     E  E E   E  E E   E E E   E  E E   E E E E E E
||--------------------|-------------------|----------------|-------------|
||o-------------------|-------------------|----------------|-------------|
||--------------------|-------------------|---6------------|-------------|
||--------------------|-------------------|-5--------------|-------------|
||o-[10]-----[10]-----|-[10]-----[10]-----|-------[10]-----|-------------|
||-------0-0------0-0-|------0-0------0-0-|-----0------0-0-|-0h1h2h5p2p1-|
|
|     E  E E   E  E E     E  E E   E  E E   E E E   E  E E   E E E E E E
||--------------------|-------------------|----------------|-------------|
||o-------------------|-------------------|----------------|-------------|
||--------------------|-------------------|----------------|-------------|
||--------------------|-------------------|---8------------|-------------|
||o-[10]-----[10]-----|-[10]-----[10]-----|-7-----[10]-----|-------------|
||-------0-0------0-0-|------0-0------0-0-|-----0------0-0-|-0h1h2h5p2p1-|


   Q   E   E  E E     E  E E   E  E E   Q  E   E  E E   E E E E E E
|-----------------|-------------------|---------------|---------------||
|-----------------|-------------------|---------------|--------------o||
|-----------------|-------------------|---------------|---------------||
|-----------------|-------------------|---------------|---------------||
|-[7]----[10]-----|-[10]-----[10]-----|-4--4-[10]---0h|=1p0h4p1p0h1--o||
|------0------0-0-|------0-0------0-0-|-----------0---|---------------||
|
|  Q   E   E  E E     E  E E   E  E E   Q  E   E  E E   E E E E E E
|-----------------|-------------------|---------------|---------------||
|-----------------|-------------------|---------------|--------------o||
|-----------------|-------------------|---------------|---------------||
|-----------------|-------------------|---------------|---------------||
|--------[10]-----|-[10]-----[10]-----|-1--1-[10]-----|--------------o||
|--0---0------0-0-|------0-0------0-0-|-----------0-0h|=1p0h5p2p1h2---||


   Q.     E  E E     E  E E   E  E E
|----------------|-------------------|
|----------------|-------------------|
|----------------|-------------------|
|----------------|-------------------|
|--3----[10]-----|-[10]-----[10]-----|
|--1---------0-0-|------0-0------0-5-|
|
|  Q.     E  E E     E  E E   E  E E
|----------------|-------------------|
|----------------|-------------------|
|----------------|-------------------|
|-10-------------|-------------------|
|--8----[10]-----|-[10]-----[10]-----|
|------------0-0-|------0-0------0-5-|


  Q.     E  E E     E  E E E E E   Q.     E  E E
|---------------|----------------|----------------|
|---------------|----------------|----------------|
|---------------|----------------|----------------|
|---------------|----------------|----------------|
|-4----[10]-----|-[10]-----------|-3----[10]------|
|-2---------0-0-|------0-5-2-1-2-|-1---------0-0--|
|
| Q.     E  E E     E  E E E E E   Q.     E  E E
|---------------|----------------|----------------|
|---------------|----------------|----------------|
|---------------|----------------|----------------|
|---------------|----------------|----------------|
|-4----[10]-----|-[10]-----------|-3----[10]------|
|-2---------0-0-|------0-5-2-1-2-|-1---------0-0--|


                                                             3/8
    E  E E   E  E E   Q.   E E E   E E E E E E   E E E Q.     Q.
|-------------------|------------|-------------|------------|------|
|-------------------|------------|-------------|------------|------|
|-------------------|------------|-------1-----|------------|------|
|-------------------|------------|-----2-------|-2-----4----|------|
|-[10]-----[10]---7-|-4------1-0-|-1-4-----1---|---0--------|------|
|------0-0------0---|------0-----|-----------0-|-----0------|------|
|
|   E  E E   E  E E   Q.   E E E   E E E E E E   E E E Q.     Q.
|-------------------|------------|-------------|------------|------|
|-------------------|------------|-------------|------------|------|
|-------------------|------------|-------------|------------|------|
|-------------------|------------|-------3-----|-2-----4----|------|
|-[10]-----[10]---3-|-1----------|-----4---1---|---0--------|------|
|------0-0------0---|------0-1-0-|-1-4-------0-|-----0------|------|


 6/8
  E E E E E E   E E E E E E   E E E E E E
|-------------|-------------|-------------|
|-------------|-------------|-6-----5-----|
|-------------|-------------|-----4-------|
|-3-----2-----|-4-----3-----|---3-----2-3-|
|-----1---0---|-----1-----1-|-------------|
|---0-------0-|---0-----0---|-------------|
|
| E E E E E E   E E E E E E   E E E E E E
|-------------|-------------|-------------|
|-------------|-------------|-------------|
|-------------|-------------|-------------|
|-3-----2-----|-4-----3-----|-3-----2-----|
|-----1---0---|-----1-----1-|-----1-------|
|---0-------0-|---0-----0---|---1-----0-1-|


    E  E E   E  E E     E  E E   E  E E
|-------------------|-------------------|
|-------------------|-------------------|
|-------------------|-------------------|
|-------------------|---------------2-3-|
|-[10]-----[10]-----|-[10]-----[10]-----|
|------0-0------0-0-|------0-0----------|
|
|   E  E E   E  E E     E  E E   E  E E
|-------------------|-------------------|
|-------------------|-------------------|
|-------------------|-------------------|
|-------------------|-------------------|
|-[10]-----[10]-----|-[10]-----[10]-----|
|------0-0------0-0-|------0-0------0-1-|


 6/8
  E E E E E E   E E E   E  E E     E  E E E E E   Q.   Q.     H.
|-------------|-2--------------|----------------|-----------|-------|
|-6-----5-----|----------------|----------6-----|-5---------|-5-----|
|-------------|----------------|--------------4-|-----------|-3-----|
|---2-3---2-3-|---2-3----------|------------3---|-----------|-2-----|
|-------------|-------[10]-----|-[10]-----------|-----------|-------|
|-------------|------------0-0-|------0-0-------|-----------|-------|
|
| E E E E E E   E E E   E  E E     E  E E E E E   Q.   Q.     H.
|-------------|----------------|----------------|-----------|-------|
|-------------|----------------|----------------|-----------|-------|
|-------------|----------------|----------------|-----------|-3-----|
|-3-----2-----|-4--------------|----------3-----|-2---------|-2-----|
|-----1-----0-|-----1-[10]-----|-[10]---------1-|-----------|-1-----|
|---0-----0---|---0--------0-0-|------0-0---1---|-----------|-------|


  +Q   E E E E   Q.   Q.     E E E E E E   E E E E E E   E E E E E E
|--------------|-----------|-------------|-------------|--------------|
|-(5)----------|-----------|-------------|-------------|--------------|
|-(3)----------|-----------|-------------|-------------|--------------|
|-(2)----------|-----------|-3-----2-----|-4-----3-----|-3-----2-2-3--|
|--------------|-1---------|-----1---0---|-----1-----1-|---1----------|
|------0-1-0-3-|-----------|---0-------0-|---0-----0---|-----1--------|
|
| +Q   E E E E   Q.   Q.     E E E E E E   E E E E E E   E E E E E E
|--------------|-----------|-------------|-------------|--------------|
|--------------|-----------|-------------|-------------|--------------|
|-(3)----------|-----------|-------------|-------------|--------------|
|-(2)----------|-----------|-3-----2-----|-4-----3-----|-3-----2------|
|-(1)----------|-----------|-----1---0---|-----1-----1-|-----1--------|
|------0-1-0-1-|-2---------|---0-------0-|---0-----0---|---1-----0-1--|


    E  E E   E  E E     E  E E   E  E E   H.
|-------------------|-------------------|---------|
|-------------------|-------------------|---------|
|-------------------|-------------------|-9-------|
|-------------------|-------------------|---------|
|-[10]-----[10]-----|-[10]-----[10]-----|-7-------|
|------0-0------0-0-|------0-0------0-1-|---------|
|
|   E  E E   E  E E     E  E E   E  E E   H.
|-------------------|-------------------|---------|
|-------------------|-------------------|---------|
|-------------------|-------------------|-9-------|
|-------------------|-------------------|---------|
|-[10]-----[10]-----|-[10]-----[10]-----|-7-------|
|------0-0------0-0-|------0-0------0-1-|---------|


   Q.   Q.      E  E E  E  E E     Q   E E E E
|------------|-----------------|---------------|
|------------|-----------------|---------------|
|-10----6----|-----------------|---------------|
|------------|-----------------|-[10]----------|
|--8----4----|-<7>-----<7>-----|---------------|
|------------|-----0-0-----0-0-|-------3-1-0-1-|
|
|  Q.   Q.      E  E E  E  E E     Q   E E E E
|------------|-----------------|---------------|
|------------|-----------------|---------------|
|-10----6----|-----------------|---------------|
|------------|-----------------|-[10]----------|
|--8----4----|-<7>-----<7>-----|---------------|
|------------|-----0-0-----0-0-|-------3-1-0-1-|


  H.        Q.   Q.     E E E E E E   E E E   E  E E     E  E E   E  E E
|---------|-----------|-------------|-2--------------|--------------------|
|---------|-----------|-6-----5-----|----------------|--------------------|
|---------|-----------|-------------|----------------|--------------------|
|---------|-----------|---2-3---2-3-|---2-3----------|--------------------|
|-2-------|-3----4----|-------------|-------[10]-----|-[10]-----[10]------|
|-0-------|-1----0----|-------------|------------0-0-|------0-0------0-0--|
|
| H.        Q.   Q.     E E E E E E   E E E   E  E E     E  E E   E  E E
|---------|-----------|-------------|----------------|--------------------|
|---------|-----------|-------------|----------------|--------------------|
|---------|-----------|-------------|----------------|--------------------|
|---------|-----------|-3-----2-----|-4--------------|--------------------|
|-2-------|-3----4----|-----1-----0-|-----1-[10]-----|-[10]-----[10]------|
|-0-------|-1----0----|---0-----0---|---0--------0-0-|------0-0------0-0--|


    E  E E Q.     +Q.    Q.     Q.    E  E E    E  E E   Q   E   E E E Q.
|---------------|-------------|--------------|-----------------|------------|
|---------------|-------------|--------------|-----------------|------------|
|----------9----|-(9)---10----|-6------------|-----------------|------------|
|---------------|-------------|--------------|---------[10]----|------------|
|-[10]-----7----|-(7)----8----|-4----<7>-----|-<7>-------------|-------2----|
|------0-0------|-------------|----------0-0-|-----0-0-------3-|-1-0-1-0----|
|
|   E  E E Q.     +Q.    Q.     Q.    E  E E    E  E E   Q   E   E E E Q.
|---------------|-------------|--------------|-----------------|------------|
|---------------|-------------|--------------|-----------------|------------|
|----------9----|-(9)---10----|-6------------|-----------------|------------|
|---------------|-------------|--------------|---------[10]----|------------|
|-[10]-----7----|-(7)----8----|-4----<7>-----|-<7>-------------|-------2----|
|------0-0------|-------------|----------0-0-|-----0-0-------3-|-1-0-1-0----|


              9/8                6/8
  +Q.   Q.     Q.   E E E E E E   Q.   Q.
|------------|------------------|---------|
|------------|------6-----5-----|-7-------|
|------------|------------------|---------|
|------------|--------2-3---2-3-|---------|
|-(2)---3----|-4----------------|---------|
|-(0)---1----|-0----------------|---------|
|
| +Q.   Q.     Q.   E E E E E E   Q.   Q.
|------------|------------------|---------|
|------------|------------------|---------|
|------------|------------------|---------|
|------------|------3-----2-----|-4-------|
|-(2)---3----|-4--------1-----0-|---------|
|-(0)---1----|-0------0-----0---|---------|


  E E E E E E   E E E E E E   E E E E E E   E E E E E E   E E E E E E
|-------------|-------------|-------------|-------------|--------------|
|-------------|-------------|-------------|-------------|--------------|
|-------------|-------------|-------------|-------------|--------------|
|-------------|-------------|-------------|-------3---2-|--------------|
|-----3-------|-----3-------|-----4-------|-------------|-----3--------|
|-0-1---1-0-1-|-0-1---1-0-1-|-0-1---1-0-1-|-0-1-0---1---|-0-1---1-0-1--|
|
| E E E E E E   E E E E E E   E E E E E E   E E E E E E   E E E E E E
|-------------|-------------|-------------|-------------|--------------|
|-------------|-------------|-------------|-------------|--------------|
|-------------|-------------|-------------|-------------|--------------|
|-------------|-------------|-------------|-----2-3---2-|--------------|
|-----3-------|-----3-------|-----4-------|---1---------|-----3--------|
|-0-1---1-0-1-|-0-1---1-0-1-|-0-1---1-0-4-|-0-------1---|-0-1---1-0-1--|


  E E E E E E   E E E E E E   E E E E E E
|-------------|-------------|-------------|
|-------------|-------------|-------------|
|-------------|-------------|-------------|
|-------------|-2-----3-----|-2-----5---6-|
|-----4-------|---1-----1---|---1---------|
|-0-1---1-0-1-|-----0-----3-|-----1---1---|
|
| E E E E E E   E E E E E E   E E E E E E
|-------------|-------------|-------------|
|-------------|-------------|-------------|
|-------------|-------------|-------------|
|-------------|-------3-----|-------2-----|
|-----4-------|---1-----1---|---1-----1---|
|-0-1---1-0-1-|-0---0-----3-|-0---1-----1-|


  E E E E E E   E E E E E E   Q.   Q  E   H.
|-------------|-------------|-----------|---------------|
|---6---6---7-|---6---------|-----------|---------------|
|-------------|-------------|---------3-|---------------|
|-----3---3---|-3---3-------|-----------|---------------|
|-------------|-------4-4-4-|-4----1----|---------------|
|-1-----------|-------0-0-0-|-0----0----|---------------|
|
| E E E E E E   E E E E E E   Q.   Q  E   E  E E E E E
|-------------|-------------|-----------|---------------|
|-------------|-------------|-----------|---------------|
|-------------|-------------|-----------|---------------|
|---3---3---4-|---3---------|-----------|------2-----4--|
|-------------|-------4-4-4-|-4----1----|----1-----2----|
|-1---1---1---|-1---1-0-0-0-|-0----0--0-|-0------2------|


    E  E E   E  E E     E  E E   E  E E
|-------------------|-------------------|
|-------------------|-------------------|
|-------------------|-------------------|
|-------------------|-------------------|
|-[10]-----[10]-----|-[10]-----[10]-----|
|------0-0------0-0-|------0-0------0-0-|
|
|   E  E E   E  E E     E  E E   E  E E
|-------------------|-------------------|
|-------------------|-------------------|
|-------------------|-------------------|
|-------------------|-------------------|
|-[10]-----[10]-----|-[10]-----[10]-----|
|------0-0------0-0-|------0-0------0-0-|


    E  E E   E  E E     E  E E   E  E E
|-------------------|--------------------|
|-------------------|--------------------|
|-------------------|--------------------|
|-------------------|--------------------|
|-[10]-----[10]-----|-[10]-----[10]------|
|------0-0------0-0-|------0-0------0-0--|
|
|   E  E E   E  E E     E  E E   E  E E
|-------------------|--------------------|
|-------------------|--------------------|
|-------------------|--------------------|
|-------------------|--------------------|
|-[10]-----[10]-----|-[10]-----[10]------|
|------0-0------0-0-|------0-0------0-0--|


  E E E  E  E E    E  E E E E E   E E E Q.
|---------------|---------------|------------*|
|---------------|---------------|------------*|
|---6-----------|---------------|------------*|
|-5-----[7]-----|-[7]-----------|------------*|
|---------------|-------0h1p0h4p|=1p0h1------*|
|-----0-----0-0-|-----0---------|------------*|
|
| E E E  E  E E    E  E E E E E   E E E Q.
|---------------|---------------|------------*|
|---------------|---------------|------------*|
|---------------|---------------|------------*|
|---8---[7]-----|-[7]-----------|------------*|
|-7-------------|---------------|------------*|
|-----0-----0-0-|-----0-0h1p0h5p|=2p1h2------*|

Добавлено: 01.12.2013
Другие материалы по этой песне:
  • Аккорды и текст

Страница создана 06.03.2012
http://primanota.ru/necrophagist/to-breathe-in-a-casket-chords.htm
Привет, Гость.
Предлагаем пройти революционный курс по гитаре.
Подарок от PrimaNota.Ru, забирай!