PrimaNota.ru - самый крупный в мире бесплатный архив песенных текстов, аккордов, табулатур и нот


Necrophagia - March Of The Deathcorp - таба, видео

Регистрация Запомнить меня
Войти через:  Facebook Google Twitter Vk Yandex Mail.ru

Necrophagia - March Of The Deathcorp - таба, видео

Печатать
Просмотров: 33
I will be including the last half of the solo, the first half is small sweeps and a whole bunch of notes, 
plus I'm pretty new to C tuning. 

Tuning: C Standard (C F A# D# G C)
5h8: Hammer On
8p7: Pull Off
*: Palm Mute
~: Vibrato
Tm: Tremolo Pick
4*b: Pinch Harmonic Bend 

Intro/Verse

C:  |-------------------------------------|
G:  |-------------------------------------|
D#: |-------------------------------------|
A#: |-------------------------------------|
F:  |2----2---2---5h8p7-2----2---2--------|
C:  |0--0-0-0-0-0-------0--0-0-0-0-0-3h7p6|
     *  * * * * *       *  * * * * *

Fill: This is in the middle of the verse and the end of the chorus

C:  |----------------|
G:  |----------------|
D#: |----------------|
A#: |-------------4*b|
F:  |333-3-2-1-------|
C:  |----------3-2---|
     *** * * * * *

Chorus
C:  |----------------------------------------------|
G:  |----------------------------------------------|
D#: |----------------------------12tm-11tm-10tm-9tm|
A#: |----------------------------------------------|
F:  |2---5-7-2----2---2---2---5-7------------------|
C:  |0---3-5-0--0-0-0-0-0-0---3-5------------------|
             *  * * * * * *

C:  |---------------------------------|
G:  |---------------------------------|
D#: |---------------------------------|
A#: |---------------------------------|
F:  |2---5-7-2----2---2---2---5-7--9-9|
C:  |0---3-5-0--0-0-0-0-0-0---3-5--7-7|
             *  * * * * * *

Play the fill once after the chorus

The solo uses wah
Solo: Beginning
C:  |----------|
G:  |----------|
D#: |----------|
A#: |9-12-14-16|
F:  |7-10-12-14|
C:  |----------|

Halfway through
C:  |--------------------------------------|
G:  |--------------------------------------|
D#: |--------------------------------------|
A#: |--------------------------------------|
F:  |5-7-8-4~--5-7-8-5~--5-7-8-4~--5-7-8-5~|
C:  |--------------------------------------|

Play this 4x
C:  |-----------------------------------|
G:  |-----------------------------------|
D#: |12-14-15-12-14-15-12-14-15-12------|
A#: |------------------------------15-14|
F:  |-----------------------------------|
C:  |-----------------------------------|

C:  |--------------------|
G:  |--------------------|
D#: |-16-17-18-19~~~~~~~~|
A#: |--------------------|
F:  |--------------------|
C:  |--------------------|

Outro
C:  |-------------------------------------|
G:  |-------------------------------------|
D#: |-------------------------------------|
A#: |-------------------------------------|
F:  |2----2---2---5h8p7-2----2---2---2-2-2|
C:  |0--0-0-0-0-0-------0--0-0-0-0-0-0-0-0|
     *  * * * * *       *  * * * * * * * *

C:  |-------------------------------------|
G:  |-------------------------------------|
D#: |-------------------------------------|
A#: |-------------------------------------|
F:  |2----2---2---------2----2---2---2-2-2|
C:  |0--0-0-0-0-0-3h7p6-0--0-0-0-0-0-0-0-0|
     *  * * * * *       *  * * * * * * * *
Добавлено: 25.05.2016
Другие материалы по этой песне:
  • Аккорды и текст

Страница создана 25.05.2016
http://primanota.ru/necrophagia/march-of-deathcorp-chords.htm
Привет, Гость.
Предлагаем пройти революционный курс по гитаре.
Подарок от PrimaNota.Ru, забирай!