PrimaNota.ru - самый крупный в мире бесплатный архив песенных текстов, аккордов, табулатур и нот


Necrophagia - Embalmed Yet I Breathe - текст песни, таба, видео

Регистрация Запомнить меня
Войти через:  Facebook Google Twitter Vk Yandex Mail.ru

Necrophagia - Embalmed Yet I Breathe - текст песни, таба, видео

Печатать
Просмотров: 173
Necrophagia - Embalmed yet I breathe

Tune two whole steps down (C Tuning)

INTRO RIFF 4x
|-------------------------------------------------------------------------|
|-------------------------------------------------------------------------|
|-------------------------------------------------------------------------|
|-------------------------------------------------------------------------|
|--------4/3--4/3/5------4/3--4/3/5------4/3--4/3/5------4/3--4/3/5-------|
|------0-2/1--2/1/3----0-2/1--2/1/3----0-2/1--2/1/3----0-2/1--2/1/3-------|
BREAK
|-------------------------------------------------------------------------|
|-------------------------------------------------------------------------|
|-------------------------------------------------------------------------|
|--/6h7-------------------------------------------------------------------|
|-------8-7~~~~-----------------------------------------------------------|
|-------------------------------------------------------------------------|


1st VERSE 
|-------------------------------------------------------------------------|
|-------------------------------------------------------------------------|
|-------------------------------------------------------------------------|
|-------------------------------------------------------------------------|
|-------6/7--7-7-7-7---6/7--7-7-7-7---6/7--7-7-7-7---6/7--7-7/8-8---------|
|-------4/5--5-5-5-5---4/5--5-5-5-5---4/5--5-5-5-5---4/5--5-5/6-6---------|

|-------------------------------------------------------------------------|
|-------------------------------------------------------------------------|
|-------------------------------------------------------------------------|
|-------------------------------------------------------------------------|
|-------6/7--7-7-7-7---6/7--7-7-7-7---6/7--7-7-7-7---6/7--7-7/8-8---------|
|-------4/5--5-5-5-5---4/5--5-5-5-5---4/5--5-5-5-5---4/5--5-5/6-6---------|

|-------------------------------------------------------------------------|
|-------------------------------------------------------------------------|
|-------------------------------------------------------------------------|
|--/6h7-------------------------------------------------------------------|
|-------8-7~~~~-----------------------------------------------------------|
|-------------------------------------------------------------------------|


2nd VERSE
|-------------------------------------------------------------------------|
|-------------------------------------------------------------------------|
|-------------------------------------------------------------------------|
|-------------------------------------------------------------------------|
|-------6/7--7-7-7-7---6/7--7-7-7-7---6/7--7-7-7-7---6/7--7-7/8-8---------|
|-------4/5--5-5-5-5---4/5--5-5-5-5---4/5--5-5-5-5---4/5--5-5/6-6---------|

|-------------------------------------------------------------------------|
|-------------------------------------------------------------------------|
|-------------------------------------------------------------------------|
|-------------------------------------------------------------9----8----2-|
|-6/7--7-7-7-7---6/7--7-7-7-7---6/7--7-7-7-7---6/7--7-7/8-8---9----8----2-|
|-4/5--5-5-5-5---4/5--5-5-5-5---4/5--5-5-5-5---4/5--5-5/6-6---7----6----0-|
                                                            HOLD HOLD HOLD

INTRO RIFF AGAIN 2x
|-------------------------------------------------------------------------|
|-------------------------------------------------------------------------|
|-------------------------------------------------------------------------|
|-------------------------------------------------------------------------|
|--------4/3--4/3/5------4/3--4/3/5------4/3--4/3/5------4/3--4/3/5-------|
|------0-2/1--2/1/3----0-2/1--2/1/3----0-2/1--2/1/3----0-2/1--2/1/3-------|
BREAK
|-------------------------------------------------------------------------|
|-------------------------------------------------------------------------|
|-------------------------------------------------------------------------|
|--/6h7-------------------------------------------------------------------|
|-------8-7~~~~-----------------------------------------------------------|
|-------------------------------------------------------------------------|


3rd VERSE
|-------------------------------------------------------------------------|
|-------------------------------------------------------------------------|
|-------------------------------------------------------------------------|
|-------------------------------------------------------------------------|
|-------6/7--7-7-7-7---6/7--7-7-7-7---6/7--7-7-7-7---6/7--7-7/8-8---------|
|-------4/5--5-5-5-5---4/5--5-5-5-5---4/5--5-5-5-5---4/5--5-5/6-6---------|

|-------------------------------------------------------------------------|
|-------------------------------------------------------------------------|
|-------------------------------------------------------------------------|
|-------------------------------------------------------------------------|
|-------6/7--7-7-7-7---6/7--7-7-7-7---6/7--7-7-7-7---6/7--7-7/8-8---------|
|-------4/5--5-5-5-5---4/5--5-5-5-5---4/5--5-5-5-5---4/5--5-5/6-6---------|

|-------------------------------------------------------------------------|
|-------------------------------------------------------------------------|
|-------------------------------------------------------------------------|
|--/6h7-------------------------------------------------------------------|
|-------8-7~~~~-----------------------------------------------------------|
|-------------------------------------------------------------------------|

4th VERSE
|-------------------------------------------------------------------------|
|-------------------------------------------------------------------------|
|-------------------------------------------------------------------------|
|-------------------------------------------------------------------------|
|-------6/7--7-7-7-7---6/7--7-7-7-7---6/7--7-7-7-7---6/7--7-7/8-8---------|
|-------4/5--5-5-5-5---4/5--5-5-5-5---4/5--5-5-5-5---4/5--5-5/6-6---------|

|-----------------------------------------------------------HOLD-OPEN-----|
|-----------------------------------------------------------CHORD-UNTIL---|
|-------------------------------------------------------------FEEDBACK----|
|-------------------------------------------------------------9----8----2-|
|-6/7--7-7-7-7---6/7--7-7-7-7---6/7--7-7-7-7---6/7--7-7/8-8---9----8----2-|
|-4/5--5-5-5-5---4/5--5-5-5-5---4/5--5-5-5-5---4/5--5-5/6-6---7----6----0-|
                                                            HOLD HOLD HOLD


RIFF OVER FEEDBACK  
|-------------------------------------------------------------------------|
|-------------------------------------------------------------------------|
|-------------------------------------------------------------------------|
|-------------------------------------------------------------------------|
|--------------------------------7----------------------------------------|
|---7~~~~~~-8-10--7~~~~~~----10-----7~~~~~~---8--7--5~~~~~~3~~~~2b3r2~~---|
CTND
|-------------------------------------------------------------------------|
|-------------------------------------------------------------------------|
|-------------------------------------------------------------------------|
|-------------------------------------------------------------------------|
|--------------------------------7----------------------------------------|
|---7~~~~~~-8-10--7~~~~~~----10-----7~~~~~~---8--7--3~~~~~~2b3r2~~~-------|


INSTRUMENTAL BREAK RIFF 
|-------------------------------------------------------------------------|
|-------------------------------------------------------------------------|
|-------------------------------------------------------------------------|
|-------------------------------------------------------------------------|
|--2-2-2-2--2-2-2-2--2-2-2-2--2-2-2-2--2-2-2-2--2-2-2-2--2-2-2-2--2-2-2-2-|
|--0-0-0-0--0-0-0-0--0-0-0-0--0-0-0-0--0-0-0-0--0-0-0-0--0-0-0-0--0-0-0-0-|
  PMPMPMPM PMPMPMPM PMPMPMPM PMPMPMPM PMPMPMPM PMPMPMPM PMPMPMPM PMPMPMPM

LEAD OVERTOP OF BELOW RIFF 2x  
|-----3-3-3-3-3-3-3-3-3-3-3-3--5--6----3-3-3-3-3-3-3-3-3-3-3-3--5--6------|
|-------------------------------------------------------------------------|
|--------ALTERNATE-PICKING----LET-THE-NOTES-RING-CLEARLY------------------|
|-------------------------------------------------------------------------|
|-------------------------------------------------------------------------|
|-------------------------------------------------------------------------|

INSTRUMENTAL BREAK RIFF 2x
|-------------------------------------------------------------------------|
|-------------------------------------------------------------------------|
|-------------------------------------------------------------------------|
|-------------------------------------------------------------------------|
|--2-2-2-2--2-2-2-2--2-2-2-2--2-2-2-2--2-2-2-2--2-2-2-2--2-2-2-2--2-2-2-2-|
|--0-0-0-0--0-0-0-0--0-0-0-0--0-0-0-0--0-0-0-0--0-0-0-0--0-0-0-0--0-0-0-0-|
  PMPMPMPM PMPMPMPM PMPMPMPM PMPMPMPM PMPMPMPM PMPMPMPM PMPMPMPM PMPMPMPM

REPRISE INTRO RIFF  3x
|-------------------------------------------------------------------------|
|-------------------------------------------------------------------------|
|-------------------------------------------------------------------------|
|-------------------------------------------------------------------------|
|--------4/3--4/3/5------4/3--4/3/5------4/3--4/3/5------4/3--4/3/5---END-|
|------0-2/1--2/1/3----0-2/1--2/1/3----0-2/1--2/1/3----0-2/1--2/1/3-------|
Добавлено: 29.06.2013
Вам также может быть интересно:
Другие материалы по этой песне:
  • Аккорды и текст

Страница создана 29.04.2012
http://primanota.ru/necrophagia/embalmed-yet-i-breathe-chords.htm
Привет, Гость.
Предлагаем пройти революционный курс по гитаре.
Подарок от PrimaNota.Ru, забирай!