PrimaNota.ru - самый крупный в мире бесплатный архив песенных текстов, аккордов, табулатур и нот


Necrophagia - And You Will Live In Terror - таба, видео

Регистрация Запомнить меня
Войти через:  Facebook Google Twitter Vk Yandex Mail.ru

Necrophagia - And You Will Live In Terror - таба, видео

Печатать
Просмотров: 104
Band:  Necrophagia
Album: Black Blood Vomitorium
Song:  And you will live in teror

Copyright (c)  (RED STREAM RECORDS) (2000)
Version 1.0 - (2000)

Transcribed By: (Aaron AKA Englundisgod)
Email:          (goosebumps.fan@hotmail.com)


.  - palm mute           /  - slide up to
  - slide down to       ~  - vibrato
h  - hammer on           b  - Bend
p  - pull off            Suffixes for bend
t  - tap                 f  - full bend    h - half bend
BHR- Bend hold release  q  - quarter bend t - tap bend
*  - see comment         ^  - Hold bend    r release bend
x  - Stuccatto           ~  - vibrato bend
,  - slight palm mute    () - ghost note, sustained note
"  - tremolo note        <> - Trill

Tuning C G D G A D

I cant think whether the verse and intro riff are power chords
or just the low E, phil had a thin-ish tone either will work
                       you decide

|-------------------------------------------------------------------|
|-------------------------------------------------------------------|
|-----INTRO-1x------------------------------------------------------|
|---------------------------------------------------------T-R-I-L-L-|
|--------------------------------------------------------1h2-1h2-1h2|
|55555--22222--111-222--111-222----55555--22222--111-222------------|


VERSE 5 x
|-------------------------------------------------------------------|
|-------------------------------------------------------------------|
|-------------------------------------------------------------------|
|-------------------------------------------------------------------|
|-------------------------------------------------------------------|
|55555--22222--111-222--111-222----55555--22222--111-222--111-222---|



 x 1
|-------------------------------------------------------------------|
|-------------------------------------------------------------------|
|-----INTRO---------------------------------------------------------|
|---------------------------------------------------------T-R-I-L-L-|
|--------------------------------------------------------1h2-1h2-1h2|
|55555--22222--111-222--111-222----55555--22222--111-222------------|




Chorus 2 x
All half bends
|-------------------------------------------------------------------|
|-------------------------------------------------------------------|
|-------------------------------------------------------------------|
|-------------------------------------------------------------------|
|-----------4^------3^----3/4/3---------------4^------3^----3/4-----|
|-000000000-----000---000-2/3/2-----000000000-----000---000-2/3-----|
  .........     ...   ... . . .     .........     ...   ...
                           P M                              P M


 x 1
|-------------------------------------------------------------------|
|-------------------------------------------------------------------|
|-----INTRO---------------------------------------------------------|
|---------------------------------------------------------T-R-I-L-L-|
|--------------------------------------------------------1h2-1h2-1h2|
|55555--22222--111-222--111-222----55555--22222--111-222------------|




VERSE 6x
|-------------------------------------------------------------------|
|-------------------------------------------------------------------|
|-------------------------------------------------------------------|
|-------------------------------------------------------------------|
|-------------------------------------------------------------------|
|55555--22222--111-222--111-222----55555--22222--111-222--111-222---|



Chorus 2 x
All half bends
|-------------------------------------------------------------------|
|-------------------------------------------------------------------|
|-------------------------------------------------------------------|
|-------------------------------------------------------------------|
|-----------4^------3^----3/4/3---------------4^------3^----3/4-----|
|-000000000-----000---000-2/3/2-----000000000-----000---000-2/3-----|
  .........     ...   ... . . .     .........     ...   ...
                           P M                              P M



INTERLUDE 3x            All NOTES RING OUT
|-------------------------------------------------------------------|
|-------------------------------------------------------------------|
|-------------------------------------------------------------------|
|------------------8-----8---(8)--------5----(5)-----4-----3(3)-----|
|-2----------7---7-----7---(7)--------4----(4)-----3-----2----(2)---|
|-0-ring-(0)---6-----6---(6)--------3----(3)-----2-----1--------(1)-|



  1 x
|-------------------------------------------------------------------|
|-------------------------------------------------------------------|
|-------------------------------------------------------------------|
|------------------8-----8---(8)--------5---(5)----7----------------|
|-2----------7---7-----7---(7)--------4---(4)----6---6----7--3------|
|-0-ring-(0)---6-----6---(6)--------3---(3)----5----------6--2------|


CNTD.
|-------------------------------------------------------------------|
|-------------------------------------------------------------------|
|-------------------------------------------------------------------|
|-------------------------------------------------------------------|
|-2-2-2--22222222-2-2-222222---4-4-4-444444--3333333-33333----------|
|-0-0-0--00000000-0-0-000000---3-3-3-333333--2222222-11111----------|


|-------------------------------------------------------------------|
|-------------------------------------------------------------------|
|-------------------------------------------------------------------|
|-------------------------------------------------------------------|
|-2-2-2--22222222-2-2-222222---4-4-4-444444--666666------7---3------|
|-0-0-0--00000000-0-0-000000---3-3-3-333333--555555------6---2------|


|-------------------------------------------------------------------|
|-------------------------------------------------------------------|
|-------------------------------------------------------------------|
|-------------------------------------------------------------------|
|-2-2-2--22222222-2-2-222222---4-4-4-444444--3333333-33333----------|
|-0-0-0--00000000-0-0-000000---3-3-3-333333--2222222-11111----------|


|-------------------------------------------------------------------|
|-------------------------------------------------------------------|
|-------------------------------------------------------------------|
|-------------------------------------------------------------------|
|-2-2-2--22222222-2-2-222222---4-4-4-444444--666666------7---3------|
|-0-0-0--00000000-0-0-000000---3-3-3-333333--555555------6---2------|



BREAKDOWN x 8
|-------------------------------------------------------------------|
|-------------------------------------------------------------------|
|-------------------------------------------------------------------|
|--------------------1/4Bend----------------------------------------|
|----7-----8-----9------5^--5^--------------------------------------|
|----5--0--6--0--7--(0)----1/2BH------------------------------------|



CTND. 4 x
|-------------------------------------------------------------------|
|-------------------------------------------------------------------|
|-------------------------------------------------------------------|
|----------------------1/4bend--------------------------------------|
|-----------------------5^--5^--------------------------------------|
|-0-0-0-0-0-0-0-0--0--0----1/2BHR-----------------------------------|
  . . . . . . . . . . .
  PM PM PM PM PM PM PM


CTND x4
|-------------------------------------------------------------------|
|-------------------------------------------------------------------|
|-------------------------------------------------------------------|
|--------------------1/4Bend----------------------------------------|
|-5-------4-----------5^---5^---------------------------------------|
|-3--0-0--2--0-0--000-----1/2BHR------------------------------------|
     . .     . .  ...
     PM      PM   PM


break 2x
|-------------------------------------------------------------------|
|-------------------------------------------------------------------|
|---------0-0h3-(2h3p2h3p2-2p1h2p1)----------0---0--3-3--2h3p2h3p2--|
|-------2----------------------------------2---2--------------------|
|-------------------------------------------------------------------|
|-0-3b4------------------------------0-3b4--------------------------|



3:40 second guitar comes in Play 4 x
|-------------------------------------------------------------------|
|-------------------------------------------------------------------|
|-------------------------------------------------------------------|
|------8/11--11/11--13/14-------8/11--11/10-10/7--------------------|
|------7/10--10/12--12/13-------7/10--10/9--9/6---------------------|
|-0000---------------------0000-------------------------------------|



CHORUS RIFF PLAY 2x
|-------------------------------------------------------------------|
|-------------------------------------------------------------------|
|-------------------------------------------------------------------|
|-------------------------------------------------------------------|
|-----------4^------3^----3/4/(3)-------------4^------3^----3/4-----|
|-000000000-----000---000-2/3/(2)---000000000-----000---000-2/3-----|


OUTRO
|-------------------------------------------------------------------|
|-------------------------------------------------------------------|
|-------------------------------------------------------------------|
|----------------------------x--------------------------------------|
|-2-------------------2------x-PICK-SLIDE--2------4^full~~--4^1/2~~-|
|-0-ring---/10^hold---0-ring---------------0------------------------|

Last section of song, is one guitar ringing open on E, and bends and
vibrato on 4th fret a string,

Hopefully you will enjoy this This was my first time doing an entire
song by ear, Feel free to leave comments and corections
Добавлено: 05.07.2012
Другие материалы по этой песне:
  • Аккорды и текст

Страница создана 05.07.2012
http://primanota.ru/necrophagia/and-you-will-live-in-terror-chords.htm
Привет, Гость.
Предлагаем пройти революционный курс по гитаре.
Подарок от PrimaNota.Ru, забирай!