PrimaNota.ru - самый крупный в мире бесплатный архив песенных текстов, аккордов, табулатур и нот


Necrocest - Thy Caked In Cum - таба, видео

Регистрация Запомнить меня
Войти через:  Facebook Google Twitter Vk Yandex Mail.ru

Necrocest - Thy Caked In Cum - таба, видео

Печатать
Просмотров: 60
Band:  NECROCEST
Album: DEAD PRETTY
Song:  THY CAKED IN CUM



.  - palm mute           /  - slide up to
\  - slide down to       ~  - vibrato
h  - hammer on           b  - Bend
p  - pull off            Suffixes for bend
t  - tap                 f  - full bend    h - half bend
ph - pinched harmonic    q  - quarter bend t - tap bend
*  - see comment         ^  - Hold bend    r release bend
x  - Stuccatto           ~  - vibrato bend
,  - slight palm mute    () - ghost note, sustained note
"  - tremolo note        <> - Trill

Notes: Awesome song... Theres alot im not sure about, I keep hearing
different things and mannerisms, but I think this is fairly accurate.

Tuning C#

Riff 1
|----------------------------------------------------------|
|----------------------------------------------------------|
|------------------------------------/6666-5555------------|
|------------6666-5555--------------------------6666-5555--|
|--5555-4444-----------6666-5555-3322----------------------|
|----------------------------------------------------------|

|----------------------------------|
|----------------------------------|
|----------------------------------|
|----------------------------------|
|-333-333-222-333--333-333-222-333-|
|-111-111-000-111--111-111-000-111-|
  ... ... ... ...  ... ... ... ...

Riff 2a
|----------------------------------|
|----------------------------------|
|----------------------------------|
|----------------------------------|
|-333-333-222-333--333-333-222-333-|
|-111-111-000-111--111-111-000-111-|
|                                  |
|----------------------------------|
|----------------------------------|
|----------------------------------|
|----------------------------------|
|-333-333-222-333--333-333-222-3ph-|
|-111-111-000-111--111-111-000-----|

Riff 2b
|----------------------------------|
|----------------------------------|
|----------------------------------|
|----------------------------------|
|-333-333-222-333--333-333-222-3ph-|
|-111-111-000-111--111-111-000-----|
  ... ... ... ...  ... ... ...

Bridge
|-------------------------------|
|-------------------------------|
|-------------------------------|
|-----8-------7-------8-------7-|
|-5-4-8---5-4-7---5-4-8---5-4-7-|
|-3-2-6---3-2-5---3-2-6---3-2-5-|
  . .  .  . .  .  . .  .  . .  .

Riff 3
|--------------------------------------------------------------|
|--------------------------------------------------------------|
|--------------------------------------------------------------|
|--------------------------------------------------------------|
|--5555-4444-----------7777-6666-----------5555-4444-----------|
|------------6666-5555-----------8888-7777-----------6666-5555-|

(Couldnt really hear this part in the mix, so this is what I play)
|---------------------|
|---------------------|
|---------------------|
|---------------------|
|---7h10----7h10------|
|-0-----7h8------7h8--|

Riff 4
|---------------------------------------|
|---------------------------------------|
|---------------------------------------|
|-7\--------6\--------7/------8/--------|
|-7\-2-2-2--6\-2-2-2--7/-2-2--8/-2-5555-|
|-5\-0-0-0--4\-0-0-0--5/-0-0--6/-0------|
     . . .     . . .     . .     .
Riff 5
|----------------------------------------------------------|
|----------------------------------------------------------|
|----------------------------------------------------------|
|----------------------------------------------------------|
|-----------------------------------------------------5555-|
|-5555444400002222-4444333300002222-555544440000222200-----|

Fill (Let Ring)
|--------|
|--------|
|--------|
|-4------|
|-4------|
|-2------|

Riff 6 (Rules so much)
|----------------------------------------|
|----------------------------------------|
|----------------------------------------|
|-2---4---------7---------4--------------|
|-2---2----5----5-----2---2---3-3--6-5-3-|
|-0-0----0-3--0---5ph-0-0---0-1-1--4-3-1-|
|                                        |
|----------------------------------------|
|----------------------------------------|
|----------------------------------------|
|-2---4---------7---------4--------------|
|-2---2----5----5-7-2-----2---3-3--6-5-3-|
|-0-0----0-3--0---5-0-0-----0-1-1--4-3-1-|
    .    .    .       .     . . .  . . .
Riff 7 
|----------------------------------|
|----------------------------------|
|----------------------------------|
|---------4-4-4-4---------7-7------|
|-2-2-2-2-2-2-2-2-5-5-5-5-5-5-7-7--|
|-0-0-0-0---------3-3-3-3-----5-5--|
  . . . . . . . . . . . . . . . . 
|-------------------------------|
|-------------------------------|
|-------------------------------|
|---------4-4-4-4---------------|
|-2-2-2-2-2-2-2-2--2-3-3--6-5-3-|
|-0-0-0-0----------0-1-1--4-3-1-|
  . . . . . . . .  . . .   . . .


Song Structure
Riff 1 x4
Riff 2a x4
Riff 2b x4
Bridge
Riff 3 x4
Pause
Riff 3 x4
Riff 4 x6
Riff 5 x2
Riff 4 x4
Riff 5 x4
Fill
Riff 6 x6
Riff 7 x4

END
Добавлено: 13.11.2013
Вам также может быть интересно:
Другие материалы по этой песне:
  • Аккорды и текст

Страница создана 13.11.2013
http://primanota.ru/necrocest/thy-caked-in-cum-chords.htm
Привет, Гость.
Предлагаем пройти революционный курс по гитаре.
Подарок от PrimaNota.Ru, забирай!