PrimaNota.ru - самый крупный в мире бесплатный архив песенных текстов, аккордов, табулатур и нот


Necrocest - Persistent Genital Warts - таба, видео

Регистрация Запомнить меня
Войти через:  Facebook Google Twitter Vk Yandex Mail.ru

Necrocest - Persistent Genital Warts - таба, видео

Печатать
Просмотров: 75
Band:  Necrocest
Album: Dead Pretty
Song:  Persistant Genital Warts



.  - palm mute           /  - slide up to
\  - slide down to       ~  - vibrato
h  - hammer on           b  - Bend
p  - pull off            Suffixes for bend
t  - tap                 f  - full bend    h - half bend
ph - pinched harmonic    q  - quarter bend t - tap bend
*  - see comment         ^  - Hold bend    r release bend
x  - Stuccatto           ~  - vibrato bend
,  - slight palm mute    () - ghost note, sustained note
"  - tremolo note        <> - Trill

Notes: Palm muting tends to be lightish, listen to song to get
a feel for it. In riff 5 there seems to be some harmonics played
by the other guitar, but I cant figure them out, and Riff 6 may 
be slightly off but its all tapped, I remember seeing them do it.

Tuning C#

Riff 1
|------------------------------|-------------------------------|
|------------------------------|-------------------------------|
|------------------------------|-------------------------------|
|------------------------------|-------------------------------|
|-2------4------5------3-4-3-2-|-2------4------5------5-4--5-4-|
|-0--0-0-2--0-0-3--0-0-1-2-1-0-|-0--0-0-2--0-0-3--0-0-3-2--3-2-|
     . .    . .    . . . . . .      . .    . .    . . . .  . .
|------------------------------|-------------------------------|
|------------------------------|-------------------------------|
|------------------------------|-------------------------------|
|------------------------------|-------------------------------|
|-2------4------5------3-4-3-2-|-2------4------5-4----3-4-3-2--|
|-0--0-0-2--0-0-3--0-0-1-2-1-0-|-0--0-0-2--0-0-3-2--0-1-2-1-0--|
     . .    . .    . . . . . .      . .    . .        . . . .

Riff 2
|---------------------------------------------------|
|---------------------------------------------------|
|---------------------------------------------------|
|---------------------------------------------------|
|-2-3-2-111111-2-3-2--------2-3-2-1111-0000---------|
|-0-1-0--------0-1-0-333333-0-1-0-----------3333333-|
  . . .        . . .        . . .

Riff 3
|---------------|--------------|
|------[x3]-----|--------------|
|---------------|--------------|
|----------3ph--|--------------|
|-2-3-2--2------|-2-3-2--2-3-2-|
|-0-1-0--0------|-0-1-0--0-1-0-|
  . . .  .        . . .  . . .

Riff 4
|------------------|------------------|
|------------------|------------------|
|------------------|------------------|
|-------------3ph--|------------------|
|-2-3-2-2-3-2------|-2-3-2-2-3-2--5-4-|
|-0-1-0-0-1-0------|-0-1-0-0-1-0--3-2-|
  . . . . . .        . . . . . .  . .

Riff 5
< > = Natural Harmonics
|------------------------------------------|
|------------------------------------------|
|---------------------------------<55555>--|
|------------------------------------------|
|---5-4---6-5-<77777>---5-4---6-5----------|
|-0-3-2-0-4-3---------0-3-2-0-4-3----------|
  . . . . . .         . . . . . . 

Riff 6
|-------------------------------------------------------------|
|-------------------------------------------------------------|
|---------------------------3ph-----------t-------------------|
|-----------4ph---------4ph--------------11p10tr7--9tr6-------|
|-2-3-2--3ph-----2-3-2------------2-3-2-----------------12tr9-|
|-0-1-0----------0-1-0------------0-1-0-----------------------|
  . . .          . . .            . . .           \_Tapping_/



Song Structure
Riff 1 x4
Riff 2a x4
Riff 2b x4
Bridge
Riff 3 x4
Pause
Riff 3 x4
Riff 4 x6
Riff 5 x2
Riff 4 x4
Riff 5 x4
Fill
Riff 6 x6
Riff 7 x4

END
Добавлено: 19.09.2013
Вам также может быть интересно:
Другие материалы по этой песне:
  • Аккорды и текст

Страница создана 19.09.2013
http://primanota.ru/necrocest/persistent-genital-warts-chords.htm
Привет, Гость.
Предлагаем пройти революционный курс по гитаре.
Подарок от PrimaNota.Ru, забирай!