PrimaNota.ru - самый крупный в мире бесплатный архив песенных текстов, аккордов, табулатур и нот


Necro - Dead Body Disposal - текст песни, бас-таба, видео

Регистрация Запомнить меня
Войти через:  Facebook Google Twitter Vk Yandex Mail.ru

Necro - Dead Body Disposal - текст песни, бас-таба, видео

Печатать
Просмотров: 146
Уроки эстрадного вокала в Санкт-Петербурге
Tabbed by: 6METAL6BASSIST6
E-mail: petergriffinav@gmail.com

Tuning: EADG

Repeated through the whole song.

G|----------------------------------------------------------------|
D|----------------------------3h4p3-------------------3-------3-/-|
A|6-------------------6-----------------------------3-------------|
E|------------------6---------------------------------------------|

G|-----------------------------------------------20----15------------|
D|6----------------------------------------------------------16--13--|
A|----------------5-6-----------1-/-6--------------------------------|
E|----------------------4--------------------------------------------|
Добавлено: 01.06.2015
Другие материалы по этой песне:
  • Аккорды и текст

Страница создана 14.07.2012
http://primanota.ru/necro/dead-body-disposal-chords.htm
Привет, Гость.
Предлагаем пройти революционный курс по гитаре.
Подарок от PrimaNota.Ru, забирай!