PrimaNota.ru - самый крупный в мире бесплатный архив песенных текстов, аккордов, табулатур и нот


Necondition - Домой - аккорды и текст, видео

Регистрация Запомнить меня
Войти через:  Facebook Google Twitter Vk Yandex Mail.ru

Necondition - Домой - аккорды и текст, видео

Печатать
Просмотров: 102
Домой
Necondition
Вступление:	   H       C       G
[3----4---4---5---5-----------------
4---4-4-4-4-5-5-5-5--5---5---5---5-
5--2---2---3---3----5-5-5-5-5-5-5-5
6------------------3---3---3---3---]

 H  C  G            G5 E  D5 E5 G5
[1--2--3--3--        ------------------
2--4--5--3--        ------------------]
[3--4--5--4--](3 Раза)[------------------]
[4--4--5--5--        --------5--7------
5--2--3--5--        --5--2--3--5--5555
6--------3--        --3--0--------3333]

H       C          G
Куплет:		Ночное солнце фонаря,
H            C         G
В "Пятёре" мусаров наряд.
H      C             G5  E
И вылетает из под ноги
D5       E5           G5
Бутылка пива с брызгами.

C              D         G
Припев:
Ооооооой! Домооооой! Ой-иее-е-е!...
Добавлено: 15.04.2014
Другие материалы по этой песне:
  • Аккорды и текст

Страница создана 15.04.2014
http://primanota.ru/necondition/domoi-chords.htm
Привет, Гость.
Предлагаем пройти революционный курс по гитаре.
Подарок от PrimaNota.Ru, забирай!