PrimaNota.ru - самый крупный в мире бесплатный архив песенных текстов, аккордов, табулатур и нот


Neck Deep - Say What You Want - бас-таба, видео

Регистрация Запомнить меня
Войти через:  Facebook Google Twitter Vk Yandex Mail.ru

Neck Deep - Say What You Want - бас-таба, видео

Печатать
Просмотров: 41
Neck Deep - Say What You Want

Tabbed by: Ashy (XxThreeCheersxX)
E-mail: burdickash@gmail.com

Tuning: Drop C (C G C F)

Intro
F|------------------------------|
C|------------------------------|
G|------------------------------| x 3
C|-2--2-2---2--2---2-2--7-7-7-7-|

F|-------------------------|
C|-------------------------|
G|-------------------------|
C|-2--2-2---2--2--2--2--2--|

Verse
F|--------------------------------------------------------------|
C|--------------------------------------------------------------|
G|0-0-0-0-0-0-0-0-0-0-0-0-0-0-0-0-4-4-4-4-4-4-4-4-2-2-2-2-2-2-2-| x 2
C|--------------------------------------------------------------|

F|-------------------------------------------------------------|
C|---------------------------------------2-------------2-------|
G|-0-0-0-0-0-0-0-0-0-0-0-0-0-0-0-0-4-4-4----4--4-2-2-2----2--2-| x 2
C|-------------------------------------------------------------|

Chorus
F|-------------------------------------------------------------|
C|-------------------------------------------------------------|
G|-------------------------------2-2-2-2--2--2-2-2-2-2-2-2-2-2-|
C|-2-2-2-2--2--2-2-2-2-2-2-2-2-2-------------------------------|

F|-----------------------------------------------------2-2-1-1-|
C|-------------------------------------------------------------|
G|-4-4-4-4--4--4-4-4-4-4-4-4-4-4-0-0-0-0--0--0-0-0-0-0---------|
C|-------------------------------------------------------------|

Outro
F|-----------------------------------------------------------------|
C|-----------------------------------------------------------------|
G|---------------------------------2-2-2-2-2-2-2-2-2-2-2-2-2-2-2-2-|
C|-2-2-2-2-2-2-2-2-2-2-2-2-2-2-2-2---------------------------------|

F|---------------------------------------------------------------------------|
C|---------------------------------------------------------------------------|
G|-4-4-4-4-4-4-4-4-4-4-4-4-4-4-4-4-0-0-0-0-0-0-0-0-0----0----0~--------------|
C|---------------------------------------------------------------------------|


Happy playing!


| /  slide up
| \  slide down
| h  hammer-on
| p  pull-off
| ~  vibrato
| +  harmonic
| x  Mute note
===============================================================================
Добавлено: 01.09.2015
Другие материалы по этой песне:
  • Аккорды и текст

Страница создана 01.09.2015
http://primanota.ru/neck-deep/say-what-you-want-chords.htm
Привет, Гость.
Предлагаем пройти революционный курс по гитаре.
Подарок от PrimaNota.Ru, забирай!