PrimaNota.ru - самый крупный в мире бесплатный архив песенных текстов, аккордов, табулатур и нот


Neck Deep - Crushing Grief No Remedy - бас-таба, видео

Регистрация Запомнить меня
Войти через:  Facebook Google Twitter Vk Yandex Mail.ru

Neck Deep - Crushing Grief No Remedy - бас-таба, видео

Печатать
Просмотров: 130
Уроки эстрадного вокала в Санкт-Петербурге
Neck Deep - Crushing Grief (No Remedy)

Tabbed by: Ashy (XxThreeCheersxX)
E-mail: burdickash@gmail.com

Tuning: Drop C

Intro (no bass)

Main Riff x 2
F|--------------------------------------------------------------|
C|--------------------------------------------------------------|
G|--------------------------------------------------------------| 
C|-7-7-7--7--4--4-4-4-4-4-4-4-4-2-2-2-2-2-2-2-2-2-2-2-2-2-2-2-2-|

F|--------------------------------------------------------------|
C|--------------------------------------------------------------|
G|------------------------------------------------------2-2-2-2-| 
C|-7-7-7--7--4--4-4-4-4-4-4-4-4-2-2-2-2-2-2-2-2-2-2-2-2---------|

Verse I x 2
F|---------------------------------------------------------|
C|---------------------------------------------------------|
G|---------------------------------------------------------|
C|-7-7-7--7-7-7--7-7-7--7-7-7--4-4-4--4-4-4--4-4-4--4-4-4--|

F|---------------------------------------------------------|
C|---------------------------------------------------------|
G|-----------------------------2-2-2--2-2-2----------------|
C|-2-2-2--2-2-2--2-2-2--2-2-2----------------4-4-4--4-4-4--|

Chorus 
F|--------------------------------------------------------------|
C|--------------------------------------------------------------|
G|--------------------------------------------------------------| 
C|-----------4--4-4-4-4-4-4-4-4-2-2-2-2-2-2-2-2-2-2-2-2-2-2-2-2-|

F|--------------------------------------------------------------|
C|--------------------------------------------------------------|
G|------------------------------------------------------2-2-2-2-| 
C|-7-7-7--7--4--4-4-4-4-4-4-4-4-2-2-2-2-2-2-2-2-2-2-2-2---------|

F|--------------------------------------------------------------|
C|--------------------------------------------------------------|
G|--------------------------------------------------------------| 
C|-7-7-7--7--4--4-4-4-4-4-4-4-4-2-2-2-2-2-2-2-2-2-2-2-2-2-2-2-2-|

F|--------------------------------------------------------------|
C|--------------------------------------------------------------|
G|------------------------------------------------------2-2-2-2-| 
C|-7-7-7--7--4--4-4-4-4-4-4-4-4-2-2-2-2-2-2-2-2-2-2-2-2---------|

Post-Chorus
F|-------------------------------------------|
C|-------------------------------------------|
G|-------------------------------2~----------|
C|-7~--------4~--------2~--------------4~----|

Bridge x 2
F|----------------------------------------------------------------|
C|----------------------------------------------------------------|
G|----------------------------------------------------------------|
C|-7-7-7-7x--------7-7-7-7x-------4-4-4-4x--------4-4-4-4x--------|

F|----------------------------------------------------------------|
C|----------------------------------------------------------------|
G|---------------------------------2-2-2-2x-----------------------|
C|-2-2-2-2x--------2-2-2-2x------------------------4-4-4-4x-------|

Chorus II
F|--------------------------------------------------------------|
C|--------------------------------------------------------------|
G|--------------------------------------------------------------| 
C|-----------4--4-4-4-4-4-4-4-4-2-2-2-2-2-2-2-2-2-2-2-2-2-2-2-2-|

F|--------------------------------------------------------------|
C|--------------------------------------------------------------|
G|------------------------------------------------------2-2-2-2-| 
C|-7-7-7--7--4--4-4-4-4-4-4-4-4-2-2-2-2-2-2-2-2-2-2-2-2---------|

F|--------------------------------------------------------------|
C|--------------------------------------------------------------|
G|--------------------------------------------------------------| 
C|-7-7-7--7--4--4-4-4-4-4-4-4-4-2-2-2-2-2-2-2-2-2-2-2-2-2-2-2-2-|
                                                                      x 2
F|--------------------------------------------------------------|
C|--------------------------------------------------------------|
G|------------------------------------------------------2-2-2-2-| 
C|-7-7-7--7--4--4-4-4-4-4-4-4-4-2-2-2-2-2-2-2-2-2-2-2-2---------|

Bridge II
F|--------------------------------------------------------------------------------------|
C|--------------------------------------------------------------------------------------|
G|--------------------------------------------------------------2-2x--------------------|
C|-7-7x----------------4-4x-----------------2-2x----------------------------4-4x--------|

F|-----------------------------------------------------------------|
C|-----------------------------------------------------------------|
G|-----------------------------------------------------------------|
C|-7-7-7-7-7-7-7-7-7-7-7-7-7-7-7-7-4-4-4-4-4-4-4-4-4-4-4-4-4-4-4-4-|
                                                                        x 3
F|-----------------------------------------------------------------|
C|-----------------------------------------------------------------|
G|---------------------------------2-2-2-2-2-2-2-2-----------------|
C|-2-2-2-2-2-2-2-2-2-2-2-2-2-2-2-2-----------------4-4-4-4-4-4-4-4-|

Outro
F|---------------------------------------------------------------------------|
C|---------------------------------------------------------------------------|
G|---------------------------------------------------------------------------|
C|-7--7--7--7--7--7--4--2~---------------------------------------------------|

Happy playing!

| /  slide up
| \  slide down
| h  hammer-on
| p  pull-off
| ~  vibrato
| +  harmonic
| x  Mute note
===============================================================================
Добавлено: 01.09.2015
Другие материалы по этой песне:

Страница создана 22.07.2015
http://primanota.ru/neck-deep/crushing-grief-no-remedy-chords.htm
Привет, Гость.
Предлагаем пройти революционный курс по гитаре.
Подарок от PrimaNota.Ru, забирай!