PrimaNota.ru - самый крупный в мире бесплатный архив песенных текстов, аккордов, табулатур и нот


Nebula - Carpe Diem - таба, видео

Регистрация Запомнить меня
Войти через:  Facebook Google Twitter Vk Yandex Mail.ru

Nebula - Carpe Diem - таба, видео

Печатать
Просмотров: 192
Artist - Nebula
Song- Carpe diem
Album- BBC Peel Sessionsl
Tuning-Whole step down (Dgcfad)
Distortion: Use a Fuzz 
Tabbed by: Martin B. (Martin_Banik@gmx.de)


h-Hammer on
p-pulloff
/-slide
x-Mute/dead note
b-Bend
rb-release bend
~-vibrato
.-palm muted

Annotations: 
-I transcripted it from the "BBC Peel Sessions"
because in the orignal, the guitar isn't tuned in 440hz
-I only tabbed the rhythm guitar
- throughout the song eddie plays some licks;
u can do so by playing the f-minor pentatonic
-Every "part" is one bar. 
-Listen to the song to get the timing. 


Intro/Verse

D|---------|---------|---------|---------|
A|---------|---------|---------|---------|
F|---------|-----3-x-|-5-5-x-x-|-3-x-x-3-|
C|-5-5-x-x-|-3-x-3-x-|-5-5-x-x-|-3-x-x-3-|
G|-5-5-x-x-|-3-x-1-x-|-3-3-x-x-|-1-x-x-1-|
D|-3-3-x-x-|-1-x-----|---------|---------|

Chorus
I dunno wheter the chrods are strummed because
the piano overcasts the guitar - play it the way u like it...
D|---|---|---|---|---|-----|---|---|
A|---|---|---|---|---|-----|---|---|
F|-8-|-8-|-5-|-5-|-3-|-3-5-|---|---|
C|-8-|-8-|-5-|-5-|-3-|-3-5-|-5-|-5-|
G|-6-|-6-|-3-|-3-|-1-|-1-3-|-5-|-5-|
D|---|---|---|---|---|-----|-3-|-3-|

D|---|---|---|---|---|---|---|---|
A|---|---|---|---|---|---|---|---|
F|-8-|-8-|-10|-10|-5-|-5-|-7-|-7-|
C|-8-|-8-|-10|-10|-5-|-5-|-7-|-7-|
G|-6-|-6-|-8-|-8-|-3-|-3-|-5-|-5-|
D|---|---|---|---|---|---|---|---|

Outro (clean)
Not exact but close...
D|-------------|-----------|
A|-------------|-----------|
F|-------12----|------10---|3x
C|----12----12-|---10---10-|
G|-10----------|-8---------|
D|-------------|-----------|

D|------------|------------|
A|------------|------------|
F|-------12---|-------15---|
C|----12---12-|----15----15|
G|-10---------|-13---------|
D|------------|------------|

Structure:

Intro:          6x
Verse:          8x
Chorus:         1x
Intro (solo):   4x
...
Outro
Добавлено: 21.02.2012
Другие материалы по этой песне:
  • Аккорды и текст

Страница создана 21.02.2012
http://primanota.ru/nebula/carpe-diem-chords.htm
Привет, Гость.
Предлагаем пройти революционный курс по гитаре.
Подарок от PrimaNota.Ru, забирай!