PrimaNota.ru - самый крупный в мире бесплатный архив песенных текстов, аккордов, табулатур и нот


Nearest The Positive - Merrian Webster Aint Got Nothing On Me - таба, видео

Регистрация Запомнить меня
Войти через:  Facebook Google Twitter Vk Yandex Mail.ru

Nearest The Positive - Merrian Webster Aint Got Nothing On Me - таба, видео

Печатать
Просмотров: 96
this is actually the very first tab i make n i think ill be the first one to make a tab 
this song! i figured it out all by ear so it's not 100% accurate. oh and idk if the parts
are distributed like it should be between both guitars...soz![i play both parts into one :D]
i hope it helps! (=

Gtr 2                               Intro:
E|---------------|
B|---------------|
G|555------------|
D|555------------|
A|333------------|
D|---------------|

Gtr 1
E|---------------------|
B|---------------------|
G|---------------------|
D|--0-9-0-12-0-9-0-7/9-|
A|---------------------|
D|---------------------|

Gtr 2
E|---------------|
B|---------------|
G|777------------|
D|777------------|
A|555------------|
D|---------------|

Gtr 1
E|---------------------|
B|---------------------|
G|---------------------|
D|--0-9-0-12-0-9/10-9--|
A|---------------------|
D|---------------------|
       [in the SECOND round you do this!(just in this part)]
Gtr 1
E|---------------------|
B|---------------------|
G|---------------------|
D|--0-9-0-12-0-9-0-7/9-|
A|---------------------|
D|---------------------|


E|--------------------------------------------------------|
B|--------------------------------------------------------|
G|--------------------------------------------------------|
D|222------0-9-0-12-0-9-0-7/9-----------------------------|
A|222-----------------------------------------------------|
D|222-----------------------------------------------------|(2x just this small part)
    ...then u repeat the whole thing!

                                  VERSE

(i know the verses are not correct but this is the way i play 'em)

Gtr 1
E|---------------------------------------------|
B|---------------------------------------------|
G|---------------------------------------------|
D|--7-5-7/9-10-9--7/9-9-10-9-9-7/9-9-7/9-9-12-9|
A|---------------------------------------------|
D|---------------------------------------------|

for gtr 2  on this part u play the same chords used in the intro/chorus... C,D,Em.


E|---------------------------------------------------------|
B|---------------------------------------------------------|
G|5-------7-------4------------------12-------11-----------|
D|x-(8x)--x-(8x)--x-(8x i think)------x-(4x)---x--(4x)-----|
A|3-------5-------2------------------10--------9-----------|
D|---------------------------------------------------------|

E|------------------------------------------------------------------------------|
B|------------------------------------------------------------------------------|
G|5-------7---------------------12--------11--------------------12-------10-----|
D|x-(8x)--x-(8x)--2-2---2-2------x-(4x)----x--(4x)---2-2---2-----x--(4x)--x-(4x)|
A|3-------5-------2-2---2-2-----10---------9---------2-2---2----10--------9-----|
D|----------------2-2---2-2--------------------------2-2---2--------------------|(2x)

Gtr 2
E|--------------------------------|
B|--------------------------------|
G|--------------------------------|
D|2-2-2-2---2-2-2--2--------------|
A|2-2-2-2---2-2-2--2--------------|
D|2-2-2-2---2-2-2--2-(16x)--------|

Gtr 1

E|----------------------------|
B|5-0-7-0-7-0-----------------|
G|----------------------------|
D|----------------------------|
A|----------------------------|
D|----------------------------|

Gtr 2
E|--------------------------------|
B|--------------------------------|
G|--------------------------------|
D|2-2-2-2---2-2-2--2--------------|
A|2-2-2-2---2-2-2--2--------------|
D|2-2-2-2---2-2-2--2-(16x)--------|


E|----------------------------|
B|0-5-0-5-0-------------------|
G|----------------------------|
D|----------------------------|
A|----------------------------|
D|----------------------------|

Gtr 2
E|--------------------------------|
B|--------------------------------|
G|--------------------------------|
D|2-2-2-2---2-2-2--2--------------|
A|2-2-2-2---2-2-2--2--------------|
D|2-2-2-2---2-2-2--2-(16x)--------|
Добавлено: 09.04.2012
Вам также может быть интересно:
Другие материалы по этой песне:
  • Аккорды и текст

Страница создана 09.04.2012
http://primanota.ru/nearest-the-positive/merrian-webster-aint-got-nothing-on-me-chords.htm
Привет, Гость.
Предлагаем пройти революционный курс по гитаре.
Подарок от PrimaNota.Ru, забирай!