PrimaNota.ru - самый крупный в мире бесплатный архив песенных текстов, аккордов, табулатур и нот


Neal Schon - Send Me An Angel - таба, видео

Регистрация Запомнить меня
Войти через:  Facebook Google Twitter Vk Yandex Mail.ru

Neal Schon - Send Me An Angel - таба, видео

Печатать
Просмотров: 289
----------------------------------------------------------------------------
                             Send Me An Angel - Neal Schon
----------------------------------------------------------------------------
Tabbed by: neuralizer
Email: jdd3@earthlink.net

hey guys, this is my first posting/tab dingy. If u actually find this then ur
probably one of the few die hard Neal Schon fans. Anyway, this is the intro
(through the "send me an angel" notes), but im working on transcribing the rest
of the song. So enjoy what i have so far and the rest should be coming soon.

Tuning: standard tuning

e|-------------|--------|--------|---------|-----------------|-------------|
B|-------------|--------|--------|---------|-----------5-5-5-|-3---3---3---|
G|-------------|--------|--------|---------|-2---------------|---5---5-----|
D|-------------|--------|--------|---------|---5--2----------|-------------|
A|--------3-5--|--7b-7b-|-7/5--3-|-2/3-5-3-|--------3--------|-------------|
E|----3-5------|--------|--------|---------|-----------------|-------------|

e|--8-8-10-8-|-----8-10-8-|-----8-10-12-|-----8-10-8-|-----8-10-8-10b------|
B|-----------|-8-8--------|-8-8---------|-8-8--------|-8-8-----------------|
G|-----------|------------|-------------|------------|---------------------|
D|-----------|------------|-------------|------------|---------------------|
A|-----------|------------|-------------|------------|---------------------|
E|-----------|------------|-------------|------------|---------------------|

e|--and then here he does a crazy fast lick that i cant quite make out-----|
B|-------------------------------------------------------------------------|
G|-------------------------------------------------------------------------|
D|-------------------------------------------------------------------------|
A|-------------------------------------------------------------------------|
E|--------------------------then he goes to--------------------------------|

e|-------------|------|-----------|--|-----------|--|----------------------|
B|-----3-5-3-3-|-5b-3-|-3h5p3-----|--|-3h5p3-----|--|-3h5p3----------------|
G|-2-5---------|------|-------5-5-|--|-------5-2-|--|-------5-5------------|
D|-------------|------|-----------|--|-----------|--|----------------------|
A|-------------|------|-----------|--|-----------|--|----------------------|
E|-------------|------|-----------|--|-----------|--|----------------------|

e|-----3-5-5-3--|----------------------------------------------------------|
B|-3-5----------|-3-5-3----------------------------------------------------|
G|--------------|-------5-5----(to be continued)---------------------------|
D|--------------|----------------------------------------------------------|
A|--------------|----------------------------------------------------------|
E|--------------|----------------------------------------------------------|

| /  slide up
| \  slide down
| h  hammer-on
| p  pull-off
| ~  vibrato
| +  harmonic
| x  Mute note

http://www.journey-zone.com/Sections/Band/Journey/schon.htm 

===============================================================================
Добавлено: 14.04.2012
Вам также может быть интересно:
Другие материалы по этой песне:
  • Аккорды и текст

Страница создана 14.04.2012
http://primanota.ru/neal-schon/send-me-an-angel-chords.htm
Привет, Гость.
Предлагаем пройти революционный курс по гитаре.
Подарок от PrimaNota.Ru, забирай!