PrimaNota.ru - самый крупный в мире бесплатный архив песенных текстов, аккордов, табулатур и нот


Не будите спящих - Закрой глаза - аккорды и текст, видео

Регистрация Запомнить меня
Войти через:  Facebook Google Twitter Vk Yandex Mail.ru

Не будите спящих - Закрой глаза - аккорды и текст, видео

Печатать
Просмотров: 807
Закрой глаза
Не будите спящих
1|---------0---------------0--------|
2|-----0-------0-------6-------6----|
3|---5---5---5---5---5---5---5---5--|
4|-3---------------0----------------|
5|----------------------------------|
6|----------------------------------|
 
1|---------0---------------0--------|
2|-----0-------0-------0-------0----|
3|---5---5---5---5---5---5---5---5--|
4|-----------------0----------------|
5|-0--------------------------------|
6|----------------------------------|

1|---------5-----------------7-------|-----------8---------------7---5----|
2|-----0-------0---------0-------0---|-------0-------0-------0-----0---0--|
3|---5---5---5---5-----7---7---7---7-|-----9---9---9---9---9---9----------|
4|-3---------------3\5---------------|-5\7---------------7----------------|
5|-----------------------------------|------------------------------------|
6|-----------------------------------|------------------------------------|

Закрой глаза,
Откинь дела
И полетели со мной.
Дорога белая ждёт
И Манит За Собой.
Давай Убъём Эту Ночь,
И Танцевать До Утра С Тобой,
Там Где То Высоко.
Пойми у нас ближайших 8 часов выхода нет
Возьми с собою воды
И пачку сигарет
Давай убьем эту ночь
И танцевать до утра с тобой
Там где то высоко

Город стреляет огнём манит
Свою паутину, не напрягайся
Я зацепил половину
Хватит убиться двоим, а теперь
Не тупим, делаем дороги ровные,
Прикола модная
Яд молодёжный по ноздрям
Минуту палево
Двигаем далее
Вот уже и вставило
Дискотеки, клубы, казино,
Вино и порево
Закупили топливо и давай туда сюда
Забей на дела мы танцуем до утра
Килогерцы по ушам клубы подарили нам,
Отрывайся и кричи голову не дури
Так что бы тело потело
душа летала
Пели недели летели, мы не сидели,
Пыхтели
Будних рабочих, нет мочи
Рожу не корчи , короче
Мы заслужили вполне оторваться этой ночью..
Стооой
Не упасть бы с неба опалённой звездой
Там за горизонтом мир другой
Ничего не бойся полетели со мной
Закрой глаза,
Откинь дела
И полетели со мной.
Дорога белая ждёт
И Манит За Собой.
Давай Убъём Эту Ночь,
И Танцевать До Утра С Тобой,
Там Где То Высоко.
Пойми у нас ближайших 8 часов выхода нет
Возьми с собою воды
И пачку сигарет
Давай убьем эту ночь
И танцевать до утра с тобой
Стооой
Не упасть бы с неба опалённой звездой
Там за горизонтом мир
Другой ни чего не бойся
Полетели со мной

Добавлено: 30.08.2013
Другие материалы по этой песне:

Страница создана 30.08.2013
http://primanota.ru/ne-budite-spyashhix/zakroi-glaza-chords.htm
Привет, Гость.
Предлагаем пройти революционный курс по гитаре.
Подарок от PrimaNota.Ru, забирай!