PrimaNota.ru - самый крупный в мире бесплатный архив песенных текстов, аккордов, табулатур и нот


Navel - Somehow - таба, видео

Регистрация Запомнить меня
Войти через:  Facebook Google Twitter Vk Yandex Mail.ru

Navel - Somehow - таба, видео

Печатать
Просмотров: 100


Somehow - Navel
---------------------------------------------------------------------------
Tabbed by: Luke Skawalker
Email: maletzky.lukas@gmx.at

Tuning: Standart Spanish tuning

The chords are C, G and E

At the beginning thereґs only the bass and the guitar always follows the same riff in the verse,
chorus and bridge.

Chorus, Brigde, Verse;
e|-------------------------------------------------
B|-------------------------------------------------
G|----5-5-5-5--------------------------------------
D|----5-5-5-5-5-5-5-5-2----------------------------
A|----3-0-3-0-5-5-5-5-2----------------------------
E|------------3-0-3-3-0----------------------------

Solo:
e|---12----12----12----12--12-12-12-12-12--12----12----12----15b15----
B|---15b15-15b15-15b15-15b-----------------------15b15-15b15-15b15----
G|--------------------------------------------------------------------
D|--------------------------------------------------------------------
A|-------------------------------------------------------------------
E|---------------------------------------------------------------

On the 2nd part of the solo Jari putshis finger softly without pressing the strings down on
the strings the he goes up and down on the E string


After the Chorus:
e|-----------------------------------------------------
B|-----------------------------------------------------
G|-----9s----------------------------------------------
D|--------9-8~-9s-8-5----------------------------------
A|------------------------------------------------------
E|-----------------------------------------------------


e|------------------------------------------------------
B|--12-12-12h13p12----12-12----------------------------
G|-----------------14----------------------------------
D|-----------------------------------------------------
A|-----------------------------------------------------
E|------------------------------------------------------

The 2nd solo goes:
e|-----------------------------------------------------7-----7-----7----
B|----5---5---5---8-----8-----8-----10----10----10-----10b11-10b11-10b11-
G|----8b9-8b9-8b9-11b12-11b12-11b12-13b14-13b14-13b14---------------------
D|------------------------------------------------------------------------
A|-----------------------------------------------------------------------
E|------------------------------------------------------------------------

e|---12----12----12-----15----15----15-------------------------------------
B|---15b16-15b16-15b16--19b20-19b20-19b20----------------------------------
G|-------------------------------------------------------------------------
D|-------------------------------------------------------------------------
A|-------------------------------------------------------------------------
E|-------------------------------------------------------------------------

2nd part:

Then Jari plays an E and an F then he play theso notes in:

e|---------------------------------------------------------------------
B|------------------------9-------------------------------------------
G|--------9s-8-5-------9s--8-8-8-9-8-5-------------------------------
D|-------------------------------------------------------------------------
A|-------------------------------------------------------------------------
E|-------------------------------------------------------------------------





 s slide up
 h hammer-on
 p pull-off
 ~ vibrato
 b bend




Добавлено: 30.08.2013
Другие материалы по этой песне:
  • Аккорды и текст

Страница создана 30.08.2013
http://primanota.ru/navel/somehow-chords.htm
Привет, Гость.
Предлагаем пройти революционный курс по гитаре.
Подарок от PrimaNota.Ru, забирай!