PrimaNota.ru - самый крупный в мире бесплатный архив песенных текстов, аккордов, табулатур и нот


Nautilus Pompilius, Вячеслав Бутусов - Хлоп Хлоп - аккорды и текст, видео

Регистрация Запомнить меня
Войти через:  Facebook Google Twitter Vk Yandex Mail.ru

Nautilus Pompilius, Вячеслав Бутусов - Хлоп Хлоп - аккорды и текст, видео

Печатать
Просмотров: 418
Уроки эстрадного вокала в Санкт-Петербурге
Хлоп Хлоп
Nautilus Pompilius, Вячеслав Бутусов
		Хлоп Хлоп

Вступление:	                                                    2 рaзa
		|--------------------------------------------------------|-----------------
		|--------------------------------------------------------|-----------------
		|.----2-----5--0-----------2-----------------2--------1-.|-----------------
		|.----------------3--2--3--------0---0-3--2-----2--3----.|-----------------
		|--------------------------------------------------------|-----------------
		|--------------------------------------------------------|-----------------

		|-------------------------------------------------------------------------|
		|-------------------------------------------------------------------------|
		|-----------1--2-------1--1-2--------1--2-------1--1-2--------3--4--------|
		|-----2--3--------2-3----------1--2--------1-2----------1--2--------------|
		|-------------------------------------------------------------------------|
		|-------------------------------------------------------------------------|

		|--------------------------------------|---0-0---0----0-0---0---0-0---0-0----|
		|--------------------------------------|-------------------------------------|
		|------3--3-4---5--4--2--0-------------|-------------------------------------|
		|-1-2-----------------------3--2--0----|-2-----2----2-----2---2-----2--------|
		|------------------------------------3-|-------------------------------------|
		|--------------------------------------|-------------------------------------|
Добавлено: 20.02.2014
Другие материалы по этой песне:
  • Аккорды и текст

Страница создана 20.02.2014
http://primanota.ru/nautilus-pompilius/xlop-xlop-2-chords.htm
Привет, Гость.
Предлагаем пройти революционный курс по гитаре.
Подарок от PrimaNota.Ru, забирай!