PrimaNota.ru - самый крупный в мире бесплатный архив песенных текстов, аккордов, табулатур и нот


Nature And Organisation - To You - таба, видео

Регистрация Запомнить меня
Войти через:  Facebook Google Twitter Vk Yandex Mail.ru

Nature And Organisation - To You - таба, видео

Печатать
Просмотров: 138
-------------------------------------------------------------------------------
                             To You by Nature & Organisation
-------------------------------------------------------------------------------
Tabbed by: Benny Oreel
E-mail:benny.oreel@telenet.be
Link: https://myspace.com/natureandorganisation

Tuning: Standard/Play with kapo on 3rd bar

e|-----4---4------4---4----------4---------4---- 4---------------------------|
B|-------5---5------5---5----4-----4---4-----4-- --4-3-----------------------|
G|-----------------------------4---------4------ ----------------------------|
D|---------------------------------------------- ---------3------5-----------|
A|--4----------4-------------------------------- -------5------5-------------|
E|------------------------4----------4---------- ------------3---------------|

After hitting the last note, immediately start the first again.  The space/interruption
in the bars is intentionally...The 3 first lines of text are accompanied by the note
before the interruption, the last line is accompanied by the notes behind the
space...repeat for the next verses. At the end of the song, before the last 2 lines of 
text a second
guitar joins in, but if you practice by yourself, just repeat the sequence again.
Enjoy!!

Lyrics:

I'd lie down in darkness with devils
And awaken with strangers that I never knew
I'd follow the hoofbeats of heartache
If I thought they'd lead me to you

There's so little magic in morning
Butterflies in your eyes and a tear drop or two
I'd run through the dawning with danger
If I could be running to you

If I cry down to God in the morning
'Who am I? Where am I? Why am I still alone?'
He'd probably show me a highway
Leading to you and to home

There's so little magic in midnight
Fireflies in your eyes and a sparkle or two
I'd dance through the darkness with danger
If I could be dancing to you

If love gives you life or takes lifetime
I'll give love or take love to you
Добавлено: 21.10.2013
Другие материалы по этой песне:
  • Аккорды и текст

Страница создана 21.10.2013
http://primanota.ru/nature-and-organisation/to-you-chords.htm
Привет, Гость.
Предлагаем пройти революционный курс по гитаре.
Подарок от PrimaNota.Ru, забирай!