PrimaNota.ru - самый крупный в мире бесплатный архив песенных текстов, аккордов, табулатур и нот


The Naturals - Infinite Eyeball - таба, видео

Регистрация Запомнить меня
Войти через:  Facebook Google Twitter Vk Yandex Mail.ru

The Naturals - Infinite Eyeball - таба, видео

Печатать
Просмотров: 58
The Naturals - Infinite Eyeball
From the album HIVE, 2015

   Guitar 1
   1               2               3               4               5
 | 1 + 2 + 3 + 4 + 1 + 2 + 3 + 4 + 1 + 2 + 3 + 4 + 1 + 2 + 3 + 4 + 1 + 2 + 3 + 4 +  |
e|----------------------------------------------------------------------------------|
B|-------------------------------------------------4-----------------------4-----1--|
G|---------------5-------------------------------5---5-3---3-5---------1------3-----|
D|-------3-----------5---------3---1-------3-----------------------3----------------|
A|-----------------------3-----------3----------------------------------------------|
E|-------------------------------------1--------------------------------------------|
                                                                               x2

   Guitar 1
   6               7               8               9               10
 | 1 + 2 + 3 + 4 + 1 + 2 + 3 + 4 + 1 + 2 + 3 + 4 + 1 + 2 + 3 + 4 + 1 + 2 + 3 + 4 +  |
e|----------------------------------------------------------------------------------|
B|-----------------------------------1-------------4-----------------------4-----1--|
G|-------------------2-------------2-------------5---5-3---3-5---------1------3-----|
D|-------3---------1-----------3-----------3-----------------------3----------------|
A|-----------------------3----------------------------------------------------------|
E|-------------------------------------1--------------------------------------------|
 |                                                                                  |
 | Guitar 2                                                                         |
 | 1 + 2 + 3 + 4 + 1 + 2 + 3 + 4 + 1 + 2 + 3 + 4 + 1 + 2 + 3 + 4 + 1 + 2 + 3 + 4 +  |
e|----------------------------------------------------------------------------------|
B|----------------------------------------------------------------------------------|
G|-8b5-----8b5-----8b5-----8b5-----8b5-----8b5-----8b5-----8b5-----8b5-----8b5------|
D|----------------------------------------------------------------------------------|
A|----------------------------------------------------------------------------------|
E|----------------------------------------------------------------------------------|


   Guitar 1
   11              12              13              14              15
 | 1 + 2 + 3 + 4 + 1 + 2 + 3 + 4 + 1 + 2 + 3 + 4 + 1 + 2 + 3 + 4 + 1 + 2 + 3 + 4 +  |
e|----------------------------------------------------------------------------3--5--|
B|-----------------------------------1-------------4-----------------------4--------|
G|-------------------2-------------2-------------5---5-3---3-5---------1------------|
D|-------3---------1-----------3-----------3-----------------------3----------------|
A|-----------------------3----------------------------------------------------------|
E|-------------------------------------1--------------------------------------------|
 |                                                                                  |
 | Guitar 2                                                                         |
 | 1 + 2 + 3 + 4 + 1 + 2 + 3 + 4 + 1 + 2 + 3 + 4 + 1 + 2 + 3 + 4 + 1 + 2 + 3 + 4 +  |
e|----------------------------------------------------------------------------------|
B|----------------------------------------------------------------------------------|
G|-8b5-----8b5-----8b5-----8b5-----8b5-----8b5-----8b5-----8b5-----8b5-----8b5------|
D|----------------------------------------------------------------------------------|
A|----------------------------------------------------------------------------------|
E|----------------------------------------------------------------------------------|
Добавлено: 11.06.2016
Другие материалы по этой песне:
  • Аккорды и текст

Страница создана 11.06.2016
http://primanota.ru/naturals/infinite-eyeball-chords.htm
Привет, Гость.
Предлагаем пройти революционный курс по гитаре.
Подарок от PrimaNota.Ru, забирай!