PrimaNota.ru - самый крупный в мире бесплатный архив песенных текстов, аккордов, табулатур и нот


Natural Flavors - Ride Into The Sunset - аккорды и текст, видео

Регистрация Запомнить меня
Войти через:  Facebook Google Twitter Vk Yandex Mail.ru

Natural Flavors - Ride Into The Sunset - аккорды и текст, видео

Печатать
Просмотров: 75
Уроки эстрадного вокала в Санкт-Петербурге
Ride Into The Sunset
Natural Flavors
Intro:  (clean electric, play near bridge)

e|-2-----2-------0h2p0-------------------|
B|---3-----3---3-------3---3-------------|
G|-----2-----2-----------2---------------|  
D|---------------------------------------|
A|---------------------------------------|
E|---------------------------------------|


e|-2-----2-------0h2p0-------------------|
B|---3-----3---3-------3---3-------------|
G|-----2-----2-----------2---------------|  
D|---------------------------------------|
A|---------------------------------------|
E|---------------------------------------|


e|-3-2-0-2-0h2p0-------2-0h2p0---2-------|
B|---------------3---3---------3---3-----|
G|-----------------2---------------------|  
D|---------------------------------------|
A|---------------------------------------|
E|---------------------------------------|


e|-3-2-0-2-0h2p0-----0h2p0---------------|
B|---------------3---------3---3---------|
G|-----------------2---------2-----------|  
D|---------------------------------------|
A|---------------------------------------|
E|---------------------------------------|


e|---3---2---0---0h2---------------------|
B|---3---3---3---3-----------------------|
G|---2---2---2---2-----------------------|  
D|---0---0---0---0-----------------------|
A|---------------------------------------|
E|---------------------------------------|


^ this is all just variations of a D chord ^


Now strum these chords in this order with a pause in between:
(see notes at bottom for chord formations)

[F7] [F/G] [C] [C/G] [G] [G]

Now strum these with no pausing:

[D] [Dsus] [D] [Dsus2] [D]


Okay, this is sort of complicated:
Strum these same chords in the same order as
above, but there's a weird pattern: 
(D is for a downwards strum, U is for upwards)


D, U D U D, U D U D 

Now, one last thing:
You start with F7 but on the last D, you
strum F/G Then you start with C but on the
last D you switch to C/G Same with G and G.

Then you play these with really fast up and down strumming:

[D] [Dsus] [D] [Dsus] [D]


Then you just keep repeating this whole
strumming pattern until the end:


End:

[F7] [F7] [Am]



Chords:

[F7]    [xx3210]
[F/G]   [xx3213]
[C]     [x32010]
[C/G]   [x32013]
[G]    [320010]
[G]    [320013]
[Am]    [x02210]
[D]     [xx0232]
[Dsus]  [xx0233]
[Dsus2] [xx0230]
     
Добавлено: 22.10.2013
Другие материалы по этой песне:
  • Аккорды и текст

Страница создана 14.08.2013
http://primanota.ru/natural-flavors/ride-into-the-sunset-chords.htm
Привет, Гость.
Предлагаем пройти революционный курс по гитаре.
Подарок от PrimaNota.Ru, забирай!