PrimaNota.ru - самый крупный в мире бесплатный архив песенных текстов, аккордов, табулатур и нот


Natty Fox - Right Direction - таба, видео

Регистрация Запомнить меня
Войти через:  Facebook Google Twitter Vk Yandex Mail.ru

Natty Fox - Right Direction - таба, видео

Печатать
Просмотров: 98
The Right Direction – Natty Fox
Tunning
e=eb
b=bb
g=gb
d=db
a=ab
E=cb

Intro and verse riff
Guitar 01
Eb-------------------------------------------------------|
Bb----------------------------------7-8---9-9-9-9--------|
Gb----------------------------------7-7---7-7-7-7--------|
Db-7/5\7-7--7-7--7-7-7-7---7/5\7-7--7-7---7-7-7-7--------|
Ab-7/5\7-7--7-7--7-7-7-7---7/5\7-7-----------------------|
Cb-7/5\7-7--7-7--7-7-7-7---7/5\7-7-----------------------|

Guitar 02
Eb------------------------------------------------------|
Bb----8---8---10---10----------7---7---10---10----------|
Gb--7---7---7----7-----(3x)--7---7---7----7-------------|
Db------------------------------------------------------|
Ab------------------------------------------------------|
Cb------------------------------------------------------|

Smile young thing, you're too young to cry
You should never bet your heart on your current situation
There are better days, you can't see now
You're invested in a lie that this day will last forever
Shot-gun, to your head, pull the trigger you'll be dead
only you can answer if the bullets really worth it.
Cross Roads, left or right, any way you turn is right
life is full of choices, and it's all in what you make it

Guitar 01
Eb--------------------|
Bb--------------------|
G---------------------|
Db--2-----------------|             5 times
Ab--2-----------------|
Cb--0--5-6------------|

Guitar 02
Eb---------------------------------------------------|
Bb--17-------17-------15-----------------------------|
Gb--------------------------16-------14-------12--2--|
Db-----14-14----14-14----14----14-14----14-14--------|
Ab---------------------------------------------------|
Cb---------------------------------------------------|


Chorus:

Guitar 01
Eb---------------3-3-3--2-2-2-----------------------------------|
Bb--2-3-3-3-3-2--3-3-3--3-3-3----2-3-3-3-3-2--5-5—-8-8-8-8------|
Gb--2-2-2-2-2-2------------------2-2-2-2-2-2--5-5--7-7-7-7------|
Db--2-2-2-2-2-2------------------2-2-2-2-2-2—-5-5—-5-5-5-5------|
Ab--------------------------------------------------------------|
Cb--------------------------------------------------------------|

Guitar 02
Eb--------------------------------------------------------|
Bb--------------------------------------------------------|
Gb---7-----------12----14----7-------------5---7----------|
Db-7---(4x)---12----12---------7--(4x)---5---5------------|
Ab--------------------------------------------------------|
Cb--------------------------------------------------------|

Take a step outside yourself and see
There is so much more to this life than this
Every day you think you seen it all
Check to see that it's not just your reflection
When you live inside yourself you're blind
Open up your eyes, and let the scales fall off
Finally ask not what's in store for you
If all we gave was hope we're in the right direction

Verse02
Why do you think that you're all alone
now
we have tried to recognize that you want to fix yourself
You are satisfied to live without
You have dug yourself a hole, but forgotten how to leave it
I reach down take my hand, leave behind your never-land
Dark walls wearing thin, all around you caving in
This hole becomes a grave if you won't take the steps to change it

Chorus:
Take a step outside yourself and see
There is so much more to this life than this
Every day you think you seen it all
Check to see that it's not just your reflection
When you live inside yourself you're blind
Open up your eyes, and let the scales fall off
Finally ask not what's in store for you
If all we gave was hope we're in the right direction

Bridge:
Eb---------------------------------------------|
Bb---------------------------------------------|
Gb------------7-------------5-7----------------|
Db-5/7-7-7-5—-7--5/7-7-7-5—-5-7—(2x)-----------|
Ab-5/7-7-7-5—-5--5/7-7-7-5--3-5----------------|
Cb—5/7-7-7-5-----5/7-7-7-5---------------------|

Not right now...don't think you're ready
only time will tell
you're too strong, you just can't see it
it's time to realize

SOLO
Guitar 01
Eb---------------3-3-3--2-2-2-----------------------------------|
Bb--2-3-3-3-3-2--3-3-3--3-3-3----2-3-3-3-3-2--5-5—-8-8-8-8------|
Gb--2-2-2-2-2-2------------------2-2-2-2-2-2--5-5--7-7-7-7------|
Db--2-2-2-2-2-2------------------2-2-2-2-2-2—-5-5—-5-5-5-5------|
Ab--------------------------------------------------------------|
Cb--------------------------------------------------------------|

Guitar 02
Eb-12----------------------------------------15h17p15---------|
Bb—15b-(6x)-------------------------------15----------15-(4x)-|
Gb----------14------12-14b-14-12----12h14---------------------|
Db--------------/14--------------14---------------------------|
Ab------------------------------------------------------------|
Cb------------------------------------------------------------|

Eb-----15h19p15-----------15h17p15---------17b-17b-17b-17b----|
Bb--15---------15-(2x)-- 15--------15-(4x)-----------------15-|
Gb------------------------------------------------------------|
Db------------------------------------------------------------|
Ab------------------------------------------------------------|
Cb------------------------------------------------------------|

CHORUS
Take a step outside yourself and see
There is so much more to this life than this
Every day you think you seen it all
Check to see that it's not just your reflection
When you live inside yourself you're blind
Open up your eyes, and let the scales fall off
Finally ask not what's in store for you
If all we gave was hope we're in the right direction

Eb----------------------------------------|
Bb---------------7-8---9-9-9-9---(3x)-----|
Gb---------------7-7---7-7-7-7------------|
Db----7/5\7-7----7-7---7-7-7-7------------|
Ab----7/5\7-7-----------------------------|
Cb----7/5\7-7-----------------------------|


www.nattyfox.com
Добавлено: 10.03.2012
Другие материалы по этой песне:
  • Аккорды и текст

Страница создана 10.03.2012
http://primanota.ru/natty-fox/right-direction-chords.htm
Привет, Гость.
Предлагаем пройти революционный курс по гитаре.
Подарок от PrimaNota.Ru, забирай!