PrimaNota.ru - самый крупный в мире бесплатный архив песенных текстов, аккордов, табулатур и нот


The National Parks - You Are Gold - таба, видео

Регистрация Запомнить меня
Войти через:  Facebook Google Twitter Vk Yandex Mail.ru

The National Parks - You Are Gold - таба, видео

Печатать
Просмотров: 79
Уроки эстрадного вокала в Санкт-Петербурге
-------------------------------------------------------------------------------
                             You Are Gold - The National Parks
-------------------------------------------------------------------------------
Tabbed by: SirRotenous
Tuning: Gadgbe
Capo 1

This song is easy to play, but hard to get right. Listen to the song to get the timing
and rhythm of the words and picking. The key for it to sound good during the chorus is 
to move the bass note first and keep the other two figners down for half a beat before 
moving them to let the notes ring out a little bit more, and not sound muted. It is also
possible to play without tuning the low E string up to a G, but I find this makes it much
easier. Good luck and happy picking!

Intro
e|---------------------------------------------|
B|------0--------0--------0--------0-----------|
G|---------0--------0--------0--------0--------|
D|---------------------------------------------|
A|---------------------------------------------|
E|-0--0--0--0--0--0--0--0--0--0--0--0----------|

We wandered lost beneath the lights
e|---------------------------------------------|
B|------0--------0--------0--------0-----------|
G|---------0--------0--------0--------0--------|
D|---------------------------------------------|
A|---------------------------------------------|
E|-0--0--0--0--0--0--0--0--0--0--0--0----------|

I felt small under the galaxies
e|---------------------------------------------|
B|------0--------0--------0--------0-----------|
G|---------0--------0--------0--------0--------|
D|---------------------------------------------|
A|---------------------------------------------|
E|-4--4--4--4--4--4--4--4--4--4--4--4----------|

It was one of those familiar nights
e|---------------------------------------------|
B|------0--------0--------0--------0-----------|
G|---------0--------0--------0--------0--------|
D|---------------------------------------------|
A|---------------------------------------------|
E|-0--0--0--0--0--0--0--0--0--0--0--0----------|

I felt big with you next to me
e|---------------------------------------------|
B|------0--------0--------0--------0-----------|
G|---------0--------0--------0--------0--------|
D|---------------------------------------------|
A|---------------------------------------------|
E|-4--4--4--4--4--4--4--4--4--4--4--4----------|

Oh my oh my I think that I am faaallling
e|---------------------------------------------|
B|------0--------0--------0--------0-----------|
G|---------0--------0--------0--------0--------| x2
D|---------------------------------------------|
A|---------------------------------------------|
E|-2--2--2--2--2--2--2--2--2--2--2--2----------|

e|---------------------------------------------|
B|------0--------0--------0--------0-----------|
G|---------0--------0--------0--------0--------|
D|---------------------------------------------|
A|---------------------------------------------|
E|-0--0--0--0--0--0--0--0--0--0--0--0----------|

Cus you are gold
e|---------------------------------------------|
B|------3--------0--------0--------0-----------|
G|---------4--------0--------0--------0--------|
D|---------------------------------------------|
A|-3--3--3-------------------------------------|
E|----------0--0--0--0--0--0--0--0--0----------|

You are all I see
e|---------------------------------------------|
B|------3--------0--------0--------0-----------|
G|---------4--------0--------0--------0--------|
D|---------------------------------------------|
A|-3--3--3-------------------------------------|
E|----------0--0--0--0--0--0--0--0--0----------|
 
You are aurum scarce and made for kings               You are gold
e|--------------------------------------------------------------------------|
B|------3--------3--------------------------------------------3-------------|
G|---------4--------2-----7--------7--------7--------7-----------4----------|
D|---------------------------5--------5--------5-------5--------------------|
A|-3--3--3--2--2--2--0--0--0--7--7--7--7--7--7--7--7--7--3--3--3------------|
E|--------------------------------------------------------------------------|

e|---------------------------------------------|
B|------0--------0--------0--------0-----------|
G|---------0--------0--------0--------0--------| x2
D|---------------------------------------------|
A|---------------------------------------------|
E|-0--0--0--0--0--0--0--0--0--0--0--0----------|

And there's something that I need to say
e|---------------------------------------------|
B|------0--------0--------0--------0-----------|
G|---------0--------0--------0--------0--------|
D|---------------------------------------------|
A|---------------------------------------------|
E|-0--0--0--0--0--0--0--0--0--0--0--0----------|

But I feel too afraid
e|---------------------------------------------|
B|------0--------0--------0--------0-----------|
G|---------0--------0--------0--------0--------|
D|---------------------------------------------|
A|---------------------------------------------|
E|-4--4--4--4--4--4--4--4--4--4--4--4----------|

Cus when it's real there's a risk
e|---------------------------------------------|
B|------0--------0--------0--------0-----------|
G|---------0--------0--------0--------0--------|
D|---------------------------------------------|
A|---------------------------------------------|
E|-0--0--0--0--0--0--0--0--0--0--0--0----------|

A chance that I'm nervous to take
e|---------------------------------------------|
B|------0--------0--------0--------0-----------|
G|---------0--------0--------0--------0--------|
D|---------------------------------------------|
A|---------------------------------------------|
E|-4--4--4--4--4--4--4--4--4--4--4--4----------|

Oh my oh my I think that I have faaalllen
e|---------------------------------------------|
B|------0--------0--------0--------0-----------|
G|---------0--------0--------0--------0--------| x2
D|---------------------------------------------|
A|---------------------------------------------|
E|-2--2--2--2--2--2--2--2--2--2--2--2----------|

Cus you are gold
e|---------------------------------------------|
B|------3--------0--------0--------0-----------|
G|---------4--------0--------0--------0--------|
D|---------------------------------------------|
A|-3--3--3-------------------------------------|
E|----------0--0--0--0--0--0--0--0--0----------|

You are all I see
e|---------------------------------------------|
B|------3--------0--------0--------0-----------|
G|---------4--------0--------0--------0--------|
D|---------------------------------------------|
A|-3--3--3-------------------------------------|
E|----------0--0--0--0--0--0--0--0--0----------|
 
You are aurum scarce and made for kings               You are gold
e|--------------------------------------------------------------------------|
B|------3--------3--------------------------------------------3-------------|
G|---------4--------2-----7--------7--------7--------7-----------4----------|
D|---------------------------5--------5--------5-------5--------------------|
A|-3--3--3--2--2--2--0--0--0--7--7--7--7--7--7--7--7--7--3--3--3------------|
E|--------------------------------------------------------------------------|

                                You are gold
e|------------------------------------------------------------------------------------------|
B|------0--------0--------0--------3--------0--------0--------0--------0--------0-----------|
G|---------0--------0--------0--------4--------0--------0--------0--------0--------0--------| 
D|------------------------------------------------------------------------------------------| 
A|----------------------------3--3--3-------------------------------------------------------|
E|-0--0--0--0--0--0--0--0--0-----------0--0--0--0--0--0--0--0--0--0--0--0--0--0--0----------|

(Here transition into strumming chords, start on C)

strum between C and G as many times as you want before starting on the lyrics
(it's an instrumental part in the recorded song)

C       G
You are gold
        C     G
You are all I see
        C      G          D         Em
You are aurum scarce and meant for kings
    C      G
And I will wait
        C        G
If it's time you need
       C      G              D       Em  
What I see in you I hope you find in me
    C       G
Cus you are gold
C       G
Go-oohh-olld
C       G
You are gold
C      G      D
G-oohh-old

(transition back into picking)

Cus you are gold
e|---------------------------------------------|
B|------3--------0--------0--------0-----------|
G|---------4--------0--------0--------0--------|
D|---------------------------------------------|
A|-3--3--3-------------------------------------|
E|----------0--0--0--0--0--0--0--0--0----------|

You are all I see
e|---------------------------------------------|
B|------3--------0--------0--------0-----------|
G|---------4--------0--------0--------0--------|
D|---------------------------------------------|
A|-3--3--3-------------------------------------|
E|----------0--0--0--0--0--0--0--0--0----------|
 
You are aurum scarce and made for kings               You are gold
e|--------------------------------------------------------------------------|
B|------3--------3--------------------------------------------3-------------|
G|---------4--------2-----7--------7--------7--------7-----------4----------|
D|---------------------------5--------5--------5-------5--------------------|
A|-3--3--3--2--2--2--0--0--0--7--7--7--7--7--7--7--7--7--3--3--3------------|
E|----------------------------------------------------------------0---------|
                                                                  ^(end on this G and let it ring out)
************************************
Добавлено: 13.03.2016
Другие материалы по этой песне:
  • Аккорды и текст

Страница создана 13.03.2016
http://primanota.ru/national-parks/you-are-gold-chords.htm
Привет, Гость.
Предлагаем пройти революционный курс по гитаре.
Подарок от PrimaNota.Ru, забирай!