PrimaNota.ru - самый крупный в мире бесплатный архив песенных текстов, аккордов, табулатур и нот


The National Parks - Glow - таба, видео

Регистрация Запомнить меня
Войти через:  Facebook Google Twitter Vk Yandex Mail.ru

The National Parks - Glow - таба, видео

Печатать
Просмотров: 86
-------------------------------------------------------------------------------
                             Glow - The National Parks
-------------------------------------------------------------------------------
Tabbed by: Baden Ballard
E-mail:

Tuning:Standard

Capo 4


I'm sure there are some things that I wrote down wrong or could have done better. Let me know if you notice
anything!

Intro:

e|---------------------------------------------------------------------------|
B|---0-------0-------0-------0-------0-------0-------0-------0---------------|
G|-------0-------0-------0-------0-------0-------0-------0-------0-----------|
D|---------------------------------------------------------------------------|
A|---------------------------------------------------------------------------|
E|-3---3---3---3---3---3---3---3---3---3---3---3---3---3---3---3-------------|

   I have felt the cold sink       deep into my    bones,
e|---------------------------------------------------------------------------|
B|---0-------0-------0-------0-------1-------1-------0-------0---------------|
G|-------0-------0-------0-------0-------1-------0-------0-------0-----------|
D|---------------------------------2---2-------------------------------------|
A|-----------------------------------------3---3-----------------------------|
E|-3---3---3---3---3---3---3---3-------------------3---3---3---3-------------|
 
   and I have built a fire just to watch   burn to coals. 
e|---------------------------------------------------------------------------|
B|---0-------0-------0-------0-------0-------1-------0-------0---------------|
G|-------0-------0-------0-------0-------0-------0-------0-------0-----------|
D|---------------------------------------------------------------------------|
A|-----------------------------------------3---3-----------------------------|
E|-3---3---3---3---3---3---3---3---3---3-----------3---3---3---3-------------|

   I've been in the sky to be      brought back down below,
e|---------------------------------------------------------------------------|
B|---0-------0-------0-------0-------1-------1-------0-------0---------------|
G|-------0-------0-------0-------0-------1-------0-------0-------0-----------|
D|---------------------------------2---2-------------------------------------|
A|-----------------------------------------3---3-----------------------------|
E|-3---3---3---3---3---3---3---3-------------------3---3---3---3-------------|
  Like walking in a desert and seeing water on the road.
e|---------------------------------------------------------------------------|
B|---0-------0-------0-------0-------0-------1-------0-------0-------0-------|
G|-------0-------0-------0-------0-------0-------0-------0-------0-------0---|
D|---------------------------------------------------------------------------|
A|-----------------------------------------3---3-----------------------------|
E|-3---3---3---3---3---3---3---3---3---3-----------3---3---3---3---3---3---3-|

e|---------|
B|---0-----|
G|-------0-|
D|---------|
A|---------|
E|-3---3---|

Bridge:

  But I      saw   something new
e|---------------------------2-------2-------2-------2-----------------------|
B|---0-------0-------0-----------3-------3-------3-------3-------------------|
G|-------0-------1-------0---------------------------------------------------|
D|-2---2---2---2-----------0---0---0---0---0---0---0---0---------------------|
A|---------------------2-----------------------------------------------------|
E|-----------------3---------------------------------------------------------|

Chorus:
                   When I saw you glow         Into the night
e|---------------------------------------------------------------------------|
B|---1-------1-------0-------0-------1-------1-------0-------0---------------|
G|-------0-------0-------0-------0-------0-------0-------0-------0-----------|
D|-----2-------2-------2---------------2-------2-------2---------------------|
A|-3-------3-------2-----------2---3-------3-------2-----------2-------------|
E|-------------------------3-------------------------------3-----------------|
 
                   You light up my world.          Is this what its like?
e|---------------------------------------------------------------------------|
B|---1-------1-------0-------0-------1-------1-------0-------0---------------|
G|-------0-------0-------0-------0-------0-------0-------0-------0-----------|
D|-----2-------2-------2---------------2-------2-------2---------------------|
A|-3-------3-------2-----------2---3-------3-------2-----------2-------------|
E|-------------------------3-------------------------------3-----------------|

(start strumming)

C     Em
Ohhhh.    
G                C          Em
Is this what its like Ohhhh.
G                C          
Is this what its like.


G (hold For most of the instrumental)
C      Am
   Ohhh
G



Verse:  

G                                      Am       C      G
When you were just a stranger, did you know you had my heart?
G                                      Am       C      G
Did it feel like forever when we were standing at the start?
Em          G         D   C
Cause I saw something new

Chorus:
Em             G     C  Em       G             C
When I saw you glow     into the night
Em             G     C  Em       G             C
You light up my world.  Is this what it's like?
C     Em
Ohhhh.    
G                C          Em
Is this what its like Ohhhh.
G                C          
Is this what its like.

Am Em D
Am Em D
Am                  Em            C
And I will stay and I will be the wind
            Am             Em                 D                     G Em 
To heal the scar upon your heart and take the feather from your skin

G                C          Em
Is this what its like Ohhhh.
G                C          
Is this what its like.

Just continue that same C Em G rhythm until the end. 

************************************

| /   slide up
| \   slide down
| h   hammer-on
| p   pull-off
| ~   vibrato
| +   harmonic
| x   Mute note
| b   Bend
| pb  Pre-bend
| br  Bend release
| pbr Pre-bend release
| brb Bend release bend

************************************
Добавлено: 13.03.2016
Вам также может быть интересно:
Другие материалы по этой песне:
  • Аккорды и текст

Страница создана 13.03.2016
http://primanota.ru/national-parks/glow-chords.htm
Привет, Гость.
Предлагаем пройти революционный курс по гитаре.
Подарок от PrimaNota.Ru, забирай!