PrimaNota.ru - самый крупный в мире бесплатный архив песенных текстов, аккордов, табулатур и нот


Nation Of Ulysses - Spectra Sonic Sound - таба, видео

Регистрация Запомнить меня
Войти через:  Facebook Google Twitter Vk Yandex Mail.ru

Nation Of Ulysses - Spectra Sonic Sound - таба, видео

Печатать
Просмотров: 64
Уроки эстрадного вокала в Санкт-Петербурге
Really great song by seminal D.C. Hardcore
band Nation Of Ulysses. It's an easy song
that's only split into 3 sections

Intro/Verse

e|---------------------------------------------------------------------------|
B|---------------------------------------------------------------------------|
G|---------------------------------------------------------------------------|
D|-----------------------------------------------------11-12-----------------|
A|-9-7-7-7-7-7-9-7-9-8-------------------------------------------------------|
E|-7-4-4-4-4-4-7-4-----------------------------------------------------------|

Pre-Chrorus
e|---------------------------------------------------------------------------|
B|---------------------------------------------------------------------------|
G|---------------------------------------------------------------------------|
D|-------4-------------------------------------------------------------------|
A|-4-x-3-2-------------------------------------------------------------------|
E|-2-x-1---------------------------------------------------------------------| x4

e|---------------------------------------------------------------------------|
B|---------------------------------------------------------------------------|
G|---------------------------------------------------------------------------|
D|---------------------------------------------------------------------------|
A|-6-6-6-6-6-6-6-6-9-9-9-9-9-9-6-6-6-6-6-6-6-6-9-9-9-9-9-9-------------------|
E|-4-4-4-4-4-4-4-4-7-7-7-7-7-7-4-4-4-4-4-4-4-4-7-7-7-7-7-7-------------------|




************************************

| /   slide up
| \   slide down
| h   hammer-on
| p   pull-off
| ~   vibrato
| +   harmonic
| x   Mute note
| b   Bend
| pb  Pre-bend
| br  Bend release
| pbr Pre-bend release
| brb Bend release bend

************************************
Добавлено: 27.12.2015
Другие материалы по этой песне:
  • Аккорды и текст

Страница создана 27.12.2015
http://primanota.ru/nation-of-ulysses/spectra-sonic-sound-chords.htm
Привет, Гость.
Предлагаем пройти революционный курс по гитаре.
Подарок от PrimaNota.Ru, забирай!