PrimaNota.ru - самый крупный в мире бесплатный архив песенных текстов, аккордов, табулатур и нот


Natalie Imbruglia - Talk In Tongues - аккорды и текст, таба, видео

Регистрация Запомнить меня
Войти через:  Facebook Google Twitter Vk Yandex Mail.ru

Natalie Imbruglia - Talk In Tongues - аккорды и текст, таба, видео

Печатать
Просмотров: 162
Talk In Tongues
Natalie Imbruglia
"Talk in tongues" by Natalie Imbruglia
>From the album "White Lilies Island"
Tabbed by Dado2

Thanks to Fabiano Nunes  fabnunes@hotmail.com> for corrections

Also thanks to Suezane Am  perfectly_windy_sky@hotmail.com> who suggested Em
instead of Em: I listened to the CD and I thought she was right, but you can
still play Em [022000] if you want: I don't think I'll change! :)

/ = slide up
[...] = keep playing with many strokes

The whole song is played with bass picking.

Intro:

   Am           B7        Em           G          Am     B7
e|-0-----0------2-2---0-|---------------3--------|-0------2-|
B|-1-----1------0-0---0-|-----0---------0--------|-1------0-|
G|-2-----2------2-2---0-|-----0---------0--------|-2------2-|
D|-2-----2------1-1---2-|-----4---------0--------|-2------1-|
A|-0-----0-2----2-2---2-|-----2---------2------0-|-0---0--2-|
E|--------------------0-|-0---0--0-2-3--3--2-3---|----------|

Verse:

| Em | C | Em | C B | C B7 | A7 | B7 |

Chorus:

| Am B7 | Em G | Am B7 | C A/C# D B/Eb |
| Am B7 | Em G | F# | C A/C# D B/Eb |

    Em(*)                    C
e|-------------------------|-0-[...]-|
B|--0--0---0--0-0-0-0------|-3-[...]-|
G|--0--2/4-2--2-2-2-0-0-0--|-0-[...]-|
D|--2------0--0-0-0-0-2-0--|-2-[...]-|
A|--2----------------------|-3-[...]-|
E|--0----------------------|---------|

Repeat verse and chorus.

Bridge:

| G | D/F# | Am (D) C | x2
| B7 | B7 | B7 |
* play the (D) in a short while changing to C

Repeat chorus.

Outro:

    Em(*)                    C         Em(*)                    C
e|-------------------------|-0-[...]-|-------------------------|-----0--|
B|--0--0---0--0-0-0-0------|-3-[...]-|--0--0---0--0-0-0-0------|----3---|
G|--0--2/4-2--2-2-2-0-0-0--|-0-[...]-|--0--2/4-2--2-2-2-0-0-0--|---0----|
D|--2------0--0-0-0-0-2-0--|-2-[...]-|--2------0--0-0-0-0-2-0--|--2-----|
A|--2----------------------|-3-[...]-|--2----------------------|-3------|
E|--0----------------------|---------|--0----------------------|--------|

(*) Is it Em again? I can't tell... if so, play [02400x] instead of [02200x].

Chords needed:

  Am   B7   Em  Em   G    C    A7   A/C# D    B/Eb F#   C   D/F#
e-0----2---------0----3----0----0----0----2----7----2----0----2-
B-1----0----0----0----0----1----2----2----3----4----2----3----3-
G-2----2----0----0----0----0----0----2----2----4----3----0----2-
D-2----1----4----2----0----2----2----2----0----4----4----2----0-
A-0----2----2----2----2----3----0----4----x----6----4----3----0-
E-x----x----0----0----3----x----x----x----x----x----2----x----2-

For any comments, questions or threats e-mail me at:
dado2_714@yahoo.it

=====
     
Добавлено: 14.11.2013
Другие материалы по этой песне:
  • Аккорды и текст

Страница создана 24.03.2012
http://primanota.ru/natalie-imbruglia/talk-in-tongues-chords.htm
Привет, Гость.
Предлагаем пройти революционный курс по гитаре.
Подарок от PrimaNota.Ru, забирай!