PrimaNota.ru - самый крупный в мире бесплатный архив песенных текстов, аккордов, табулатур и нот


Natalie Imbruglia - Sunlight - аккорды и текст, видео

Регистрация Запомнить меня
Войти через:  Facebook Google Twitter Vk Yandex Mail.ru

Natalie Imbruglia - Sunlight - аккорды и текст, видео

Печатать
Просмотров: 182
Sunlight
Natalie Imbruglia
"Sunlight" by Natalie Imbruglia
>From the album "White Lilies Islad"
Tabbed by Dado2

Intro:

  C#             G#         Ebm            F#
e---1---1-----1----1-4-1------1-4-1----1---6--4-1-
B-4---4-----4----4----------4--------4------------
 (repeat twice)

Verse:

| Bbm | C# | F# | G# | x4

Chorus:

| F# | Ebm | Bbm | G# | F# | Ebm | G# | G# |

Repeat intro (actually the riff is slightly different and played just once).
Repeat verse and chorus.
Repeat intro again (there are some differences here too).

Bridge:

   Bbm                               Bbm7
e|---------------------------------|---------------------------------|
B|---------------------------------|-----------------2---------------|
G|-1-3-3-3-3-3-3-3-1-3-3-3-3-3-3-3-|-1-3-3-3-3-3-3-3---3-3-3-3-3-3-3-|
D|---------------------------------|---------------------------------|
A|---------------------------------|---------------------------------|
E|---------------------------------|---------------------------------|
  (F# 2nd time)                      (Bbm 2nd time)    -- repeat twice

Repeat chorus.

Outro:
Repeat intro riff and chords below chorus vocals until fade.

Chords needed:

  C#  G#  Ebm F#  Bbm 
e-1---4---2---2---1----
B-2---1---4---2---2----
G-1---1---3---3---3----
D-3---1---1---4---3----
A-4---3---x---4---1----
E-x---4---x---2---x----

With capo on the 1st fret (chord positions):
  C  G  Dm F  Am 
e-0--3--1--1--0---
B-1--0--3--1--1---
G-0--0--2--2--2---
D-2--0--0--3--2---
A-3--2--x--3--0---
E-x--3--x--1--x---

For any comments, questions or threats e-mail me at:
dado2_714@yahoo.it

Tab made with Guitar Tabmaker.
For information see it.geocities.com/dado2_714/
     
Добавлено: 14.11.2013
Другие материалы по этой песне:

Страница создана 02.06.2012
http://primanota.ru/natalie-imbruglia/sunlight-chords.htm
Привет, Гость.
Предлагаем пройти революционный курс по гитаре.
Подарок от PrimaNota.Ru, забирай!