PrimaNota.ru - самый крупный в мире бесплатный архив песенных текстов, аккордов, табулатур и нот


Natalie Imbruglia - Intuition - аккорды и текст, перевод, видео

Регистрация Запомнить меня
Войти через:  Facebook Google Twitter Vk Yandex Mail.ru

Natalie Imbruglia - Intuition - аккорды и текст, перевод, видео

Печатать
Просмотров: 159
Intuition
Natalie Imbruglia
"Intuition" by Natalie Imbruglia
from the album "Left of the middle"
Tabbed by Dado2 (dado2_714@yahoo.it)
Added by Mikhailo

Intro:

  Gm G5      Gm G5
e---------------------------
B---------------------------
G-3----------3--------------
D-5--5-5-5-5-5--5--5--5-5-5-
A-5--5-5-5-5-5--5--5--5-5-5-
E-3--3-3-3-3-3--3--3--3-3-3-

Verse:

| G | C | G | C | Am | Am | G D | Am D | x2 (1st time)
                                            just once (2nd time)

Chorus:

| G D | G D | G D | G D |
| Am G | Am G | G D | Am D | once (1st, 3rd time)
                              x2 (2nd, 4th time)

Repeat verse and chorus.

Bridge:

| Am G | G | Am G | G7 | C D |

Repeat chorus twice.
| G D | Am D | 3 more times

Chords needed:

  C     Am    G     D     G7    Gm    G5
e-0-----0-----3-----2-----1-----3-----x-
B-1-----1----0(3)---3-----0-----3-----x-
G-0-----2-----0-----2-----0-----3-----x-
D-2-----2-----0-----0-----0-----5-----5-
A-3-----0-----2----(0)----2-----5-----5-
E(0)---(0)----3-----x-----3-----3-----3-
Добавлено: 25.05.2012
Другие материалы по этой песне:

Страница создана 13.05.2012
http://primanota.ru/natalie-imbruglia/intuition-chords.htm
Привет, Гость.
Предлагаем пройти революционный курс по гитаре.
Подарок от PrimaNota.Ru, забирай!