PrimaNota.ru - самый крупный в мире бесплатный архив песенных текстов, аккордов, табулатур и нот


Natalie Imbruglia - Impressed - аккорды и текст, видео

Регистрация Запомнить меня
Войти через:  Facebook Google Twitter Vk Yandex Mail.ru

Natalie Imbruglia - Impressed - аккорды и текст, видео

Печатать
Просмотров: 133
Impressed
Natalie Imbruglia
"Impressed" by Natalie Imbruglia
from the album "Left of the middle"
Tabbed by Dado2 (dado2_714@yahoo.it)
Added by Mikhailo

Intro:

  A5  >     >   >
e-----------------
B-----------------
G-----2-----2---2-
D-2-2-2-2-2-2-2-2-
A-0-0-0-0-0-0-0-0-
E----------------- x 12
> = accent

Verse:

| Am | G | Dm | Dm | x3
| Am | G | Dm | Dm G |

Chorus:

| Am G | Dm Am | x3
| Dm | G |

| Am | G Dm | x2
then repeat verse and chorus.

Bridge:

| Am | Am | Am | Am | G | G | Dm | Dm | Am Dm | Am Dm |
| Am | Am | Am | G Dm |

Repeat chorus twice; end with Am (pause)
then restart:

| Am | G Dm | x 26

Chords needed:

  A5    Am    G     Dm
e-x-----0-----3-----1-
B-x-----1----0(3)---3-
G-2-----2-----0-----2-
D-2-----2-----0-----0-
A-0-----0-----2----(0)
E-x----(0)----3-----x-

"Impressed" by Natalie Imbruglia
from the album "Left of the middle"
Tabbed by Dado2

Intro:

  A5  >     >   >
e-----------------
B-----------------
G-----2-----2---2-
D-2-2-2-2-2-2-2-2-
A-0-0-0-0-0-0-0-0-
E----------------- x 12
> = accent

Verse:

| Am | G | Dm | Dm | x3
| Am | G | Dm | Dm G |

Chorus:

| Am G | Dm Am | x3
| Dm | G |

| Am | G Dm | x2
then repeat verse and chorus.

Bridge:

| Am | Am | Am | Am | G | G | Dm | Dm | Am Dm | Am Dm |
| Am | Am | Am | G Dm |

Repeat chorus twice; end with Am (pause)
then restart:

| Am | G Dm | x 26

Chords needed:

  A5    Am    G     Dm
e-x-----0-----3-----1-
B-x-----1----0(3)---3-
G-2-----2-----0-----2-
D-2-----2-----0-----0-
A-0-----0-----2----(0)
E-x----(0)----3-----x-
Добавлено: 24.04.2012
Другие материалы по этой песне:

Страница создана 18.04.2012
http://primanota.ru/natalie-imbruglia/impressed-chords.htm
Привет, Гость.
Предлагаем пройти революционный курс по гитаре.
Подарок от PrimaNota.Ru, забирай!