PrimaNota.ru - самый крупный в мире бесплатный архив песенных текстов, аккордов, табулатур и нот


Natale - Bianco Natale - таба, видео

Регистрация Запомнить меня
Войти через:  Facebook Google Twitter Vk Yandex Mail.ru

Natale - Bianco Natale - таба, видео

Печатать
Просмотров: 230
Уроки эстрадного вокала в Санкт-Петербурге
		   --------
====================================================================
#------------------------------------------------------------------
# Bianco Natal - Fabio Guerrazzi
#------------------------------------------------------------------

Data: 13/12/1999
Da:   Fabio Guerrazzi
Autore: ??????

Trascrizione: Fabio Guerrazzi  fabiog@si.tdnet.it
Descrizione: Questa è il famosissimo motivetto di natale
   ed è una versione che ho trovato sulla chitarra un pò di tempo fa.
   Non so se ci sono versioni ufficiali ma ha un buon effetto
   "classico" ed è molto semplice.
   Consiglio di usare un arpeggio molto morbido a tempo...
   PS:. Non sono sicuro che il titolo sia esatto..

Fatemi sapere cosa ne pensate... non si vive di solo pane! :-)

     G

 E-----0-----------------------0---------------5-5-8-5-----7------|---
 B---3---3-0-----------------3---3-0-----------5---7---7-8------|---
 G---0-----0---0-----0----0--0-----0---0-----0-0---5-----7----|---
 D---0-----0-0-----0----0----0-----0-0-----0---3---5-----5-5-|---
 A-------------------------------------------------------5-------------|---
 E---3-----3-----3----3------3-----3-----3------------------------|---


     G     C5    G         {armonici}

 E---3--------------|-------{12}------------|---------------------
 B---3-3-0-3-1------|-----------------{12}--|---------------------
 G---0-----0---2-0--|--{7}-------{7}--------|---------------------
 D---------2-----0--|-----------------------|---------------------
 A---------3--------|-----------------------|---------------------
 E---3-----------3--|-----------------------|--3------------------


--
Fabio Guerrazzi



     
Добавлено: 25.08.2013
Другие материалы по этой песне:
  • Аккорды и текст

Страница создана 25.08.2013
http://primanota.ru/natale/bianco-natale-chords.htm
Привет, Гость.
Предлагаем пройти революционный курс по гитаре.
Подарок от PrimaNota.Ru, забирай!