PrimaNota.ru - самый крупный в мире бесплатный архив песенных текстов, аккордов, табулатур и нот


Nat And Alex Wolff - Look Oustide - аккорды и текст, видео

Регистрация Запомнить меня
Войти через:  Facebook Google Twitter Vk Yandex Mail.ru

Nat And Alex Wolff - Look Oustide - аккорды и текст, видео

Печатать
Просмотров: 76
Look Oustide
Nat And Alex Wolff
Look Outside - Nat and Alex Wolff

NO CAPO

Intro tab 

e|2-5-5-5-2-7--2-5-5-5-10-7--------3-------3-3--3-2-3-2-3--------------------|
B|---------------------------0-3-3---0-3-3-----------------------------------|
G|---------------------------------------------------------------------------|
D|---------------------------------------------------------------------------|
A|---------------------------------------------------------------------------|
E|---------------------------------------------------------------------------|


D                     G
Sleep now, the sun is out
D                     G
Sleep now, the sun is out
                     Em
I'll meet you in the evening
                  G
Meet you in the evening
                     
We'll do it all again
D                         G
Sleep now, don't mind the birds
D                         G
Sleep now, don't mind the birds
                        Em
I'll meet you when it's dark out
                        G
Meet you when it's dark out

We'll do it all again


   G D Em
And ah, it's not so bad
G D Em
Ah, it's alright
G D Em
Ah, it's not so bad
G D Em          D
Ah, look outside
     C     G
Look outside
     C     A
Look outside


D                     G
Wake up, it's time to laugh
D                     G
Wake up, it's time to laugh
            Em
Everyone is winding down
                   G
We're just getting started

We're just getting started
D                   G
Wake up, I got your back
D                   G
Wake up, I got your back
      EM                       G
I can hold you up when you're feeling down

And you can do the same



G D EM
And ah, it's not so bad
G D EM
Ah, it's alright
G D EM
Ah, it's not so bad
G D EM          D
Ah, look outside
     C     G
Look outside
     C     A
Look outside
     C     G
Look outside
     C     A
Look outside

(Outro)

e|2-5-5-5-2-7--2-5-5-5-10-7--------3-------3-3--3-2-3-2-3-2------------------|
B|---------------------------0-3-3---0-3-3-----------------------------------|
G|---------------------------------------------------------------------------|
D|---------------------------------------------------------------------------|
A|---------------------------------------------------------------------------|
E|---------------------------------------------------------------------------|

(optional D strum at end)
Добавлено: 06.03.2016
Другие материалы по этой песне:
  • Аккорды и текст

Страница создана 06.03.2016
http://primanota.ru/nat-and-alex-wolff/look-oustide-chords.htm
Привет, Гость.
Предлагаем пройти революционный курс по гитаре.
Подарок от PrimaNota.Ru, забирай!