PrimaNota.ru - самый крупный в мире бесплатный архив песенных текстов, аккордов, табулатур и нот


Nat And Alex Wolff - 18 - аккорды и текст, таба, видео

Регистрация Запомнить меня
Войти через:  Facebook Google Twitter Vk Yandex Mail.ru

Nat And Alex Wolff - 18 - аккорды и текст, таба, видео

Печатать
Просмотров: 101
18
Nat And Alex Wolff
Tabbed By: Fabio BlenderBR


 - Intro:

A
A   G   D
A   G   D
A   G   D



 - Riff:

e|-------------------------------------------------------------------------------14----14----14----14----14----|
B|-10-10--10s15-14---8-8--8s15-14--10-10~-----10-10--10s15-14---8-8--8s15-14--15----15----15----15----15----15-|
G|-------------------------------------------------------------------------------------------------------------|
D|-------------------------------------------------------------------------------------------------------------|
A|-------------------------------------------------------------------------------------------------------------|
E|-------------------------------------------------------------------------------------------------------------|



 - Verse:

A            G               D  
Dad, I overheard you say to mom,
A                G               D
I could use his room when he is gone.
A              G            D
We don't ever seem to get along,
       F  E  D
Am I wroooooong?
       F  E 
Am I wroooooong?



 - Chorus:

          A   D   C           G
When I'm eighteen I will be free.
        A        D     C         G
When I turn eighteen, you won't see me.
      E
Cause I...I won't need you.



 - Intro:

A   G   D



 - Riff:

e|------9----9----9----9---7---7---7---7----14----14----14----14----14------|
B|---10---10---10---10---8---8---8---8---15----15----15----15----15----15---|
G|--------------------------------------------------------------------------|
D|--------------------------------------------------------------------------|
A|--------------------------------------------------------------------------|
E|--------------------------------------------------------------------------|



 - Verse:

A              G                  D
I can make you mad, thats how it seems,
A                     G              D
Sometimes I get that vibe when you scream.
A             G                    D
Now I have become your worst bad dream.
        F         E  D
Do you want me to leave,
         F               E
I could leave, I could leave.




 - Chorus:   (In this Chorus, the guitar keep sliding between: A [G - A]  D [ C - D]  C [B - C]  G [F - G])

          A   D   C           F G  F G 
When I'm eighteen I will be free.
        A        D     C         F G  F G 
When I turn eighteen, you won't see me.
      E
Cause I...I won't need you.



 - Intro:

A   G   D



 - Riff:

e|------9----9----9----9---7---7---7---7----14----14----14----14----14------|
B|---10---10---10---10---8---8---8---8---15----15----15----15----15----15---|
G|--------------------------------------------------------------------------|
D|--------------------------------------------------------------------------|
A|--------------------------------------------------------------------------|
E|--------------------------------------------------------------------------|



 - Bridge:

E          D
You can't save me,
E          D         C
You can't break me, make me



 - Solo:

A   G   D
A   G   D



 - Verse 3:

A               G                D
You can lock me in, I'll find a key.
A                   G                 D
I'll break out for good, Don't follow me.
          F                E  D
I can't breathe, I can't breathe,
          F                E
I can't breathe, I can't breathe.




 - Chorus:   

              D   C           G
When I'm eighteen I will be free.
        A        D     C         G 
When I turn eighteen, you won't see me.
          A   D   C           G
When I'm eighteen I will be free.
        A        D     C         G 
When I turn eighteen, you won't see me.
      E
Cause I...I won't need you.

__________
Hope you liked!

Tabbed by: Fabio BlenderBR
Добавлено: 06.03.2016
Вам также может быть интересно:
Другие материалы по этой песне:
  • Аккорды и текст

Страница создана 06.03.2016
http://primanota.ru/nat-and-alex-wolff/18-chords.htm
Привет, Гость.
Предлагаем пройти революционный курс по гитаре.
Подарок от PrimaNota.Ru, забирай!